Song name
# A B C D E F G H I J K L M N O P Q R S T U V W X Y Z

Sonny Boy Williamson - Bring It On Home tab

Band/Artist: Sonny Boy Williamson
Song Title: Bring It On Home
Album Title: His Best
Composed by: Willie Dixon
http://www.sonnyboy.com/

Additional info: The E and A shuffle is the main
part of the song. It repeats throughout the entire
thing. The only different part during this song is 
located towards the end. 


|  h = hammer on
|  p = pull off
|  b = full bend
|  r = release bend
|  / = slide up
|  \ = slide down
|  x = muted note
|  ~ = vibrato


   E shuffle
e|----------------------------------------------------|
B|----------------------------------------------------|
G|----------------------------------------------------|
D|----------------------------------------------------|
A|-2--2--4--2--5--2--4-----2--2--4--2--5--2--4--------|
E|-0--0--0--0--0--0--0--0--0--0--0--0--0--0--0--0-----|


   A shuffle
e|----------------------------------------------------|
B|----------------------------------------------------|
G|----------------------------------------------------|
D|-2--2--4--2--5--2--4-----2--2--4--2--5--2--4--------|
A|-0--0--0--0--0--0--0--0--0--0--0--0--0--0--0--0-----|
E|----------------------------------------------------|



This next part is played only once towards the end of the song. 

   B                          A
e|------2--2--2--2--2---2-----------------------------|
B|------2--2--2--2--2---2-----------------------------|
G|---------------------------/2-----------------------|
D|-4-----------------------------2--4--2--5--5--4--2--|
A|-------------------------------0--0--0--0--0--0--0--|
E|----------------------------------------------------|

   E
e|----------------------------------------------------|
B|-------------------------------------3--3-----------|
G|-------------------------------------1--1-----------|
D|---------0---------------------------2--2-----------|
A|------2-----2--1--0-----0------------2--2-----------|
E|-0-------------------3-----3--0---0--0--0-----------|


Then it goes back to the E shuffle until the fade out. 


Below is an example of when to play which
shuffles or parts of the song. Just follow the 
chords above the lyrics; they’ll indicate which 
shuffle to use at what time. Remember, the E 
shuffle and A shuffle repeats itself throughout 
the entire song EXECPT that one part towards the 
end when it goes from B -> A -> E. 


 E shuffle
 Baby      baby,


 I'm gonna bring it on home to you


 I done bought my ticket, I got my load


 Conductor done hollered, "All, aboard"

 A shuffle
 Take my seat and ride way back,

     E shuffle
 and watch this train move down the track

 
 Baby      baby,


 I'm gonna bring it on home to you 


 I think about the good times I once have had

 
 Soul got happy now, my heart got glad

 A shuffle
 I think about the way you love me too

         E shuffle
 You can bet your life, I'm comin home to you


 I'm goin home,


 I'm gonna bring it on home, now

           A shuffle
 I'm gonna bring it on home, now

           E shuffle
 I'm gonna bring it on home, now

       B
 Gonna bring it on home,

 A                   E   
 bring it on home to you

E shuffle

*Fade out*
Tap to rate this tab
# A B C D E F G H I J K L M N O P Q R S T U V W X Y Z