Song name
# A B C D E F G H I J K L M N O P Q R S T U V W X Y Z

Sons And Daughters - Wake Up tab

All Son and Daughters                                                  Key D
Wake Up

Verse 1: Guitar doesn't come in yet

Pre-Chorus:
e--14----14----14-----|
B-----15----15----15--|
G---------------------|Repeat as necessary
D---------------------|
A---------------------|
E---------------------|

Chorus:
e--------------------------------|
B-------3------2------3------3---|
G-----4------2------0------0-----| 2x
D---4------2------0------2-------|
A--------------------------------|
E--------------------------------|

Verse 2:
e--------------2-------------0---|
B-------3----3--------3----2-----|
G-----4----2--------0----2-------| 2x
D---4-------------0--------------|
A--------------------------------|
E--------------------------------|

Repeat Pre-Chorus
Repeat Chorus
Instrumental:
 Same as Chorus
Bridge:
 Same as Pre-Chorus
Repeat Chorus
Instumental:
 Same as Pre-Chorus
Repeat Bridge
Tap to rate this tab
 
# A B C D E F G H I J K L M N O P Q R S T U V W X Y Z