Song name
# A B C D E F G H I J K L M N O P Q R S T U V W X Y Z

Sons Of Butcher - Freelove Freeway tab

    . . .    . . .     . .    . .
e|--------------------------------|
b|--------------------------------|
g|--4-4-4----9-9-9----------------|
d|--4-4-4----9-9-9-----6-6----4-4-|
a|--2-2-2----7-7-7-----6-6----4-4-|
e|---------------------4-4----2-2-|


e|-------------------------|
b|-------------------------|
g|--4----9-9---------------|
d|--4----9-9----6-6----4-4-|
a|--2----7-7----6-6----4-4-|
e|--------------4-4----2-2-|


            these are the real tabs i just didint took the time to mark how many time 
play each rift but you can do it by yourself
Tap to rate this tab
 
# A B C D E F G H I J K L M N O P Q R S T U V W X Y Z