Song name
# A B C D E F G H I J K L M N O P Q R S T U V W X Y Z

Soren Kragh Jacobsen - Kender Du Det Mona Mona chords

Highlighted       Show chord diagrams
----------------------------------------------------------------------------
		    Søren Kragh Jacobsen – Kender du det (Mona)
----------------------------------------------------------------------------
Bare lige lidt korrektioner lavet i forhold til et andet tab, for folk der gerne 
vil kunne spille den uden capo.

Tabbed by: Michael Boe Grumstrup

Tuning: Standard

Anvendte akkorder:

   D	   Gmaj7  Em7	     G	      C	      B7	     A7	    Em7b5
e|-2------2-------------3---------------2------------------------------------|
B|-3------3-----3-------3-------1---------------2--------3-------------------|
G|-2------4-----------------------------2------------------------------------|
D|--------5-----x---------------2-------1-------2----------------------------|
A|--------------2-------2-------3-------2----------------1-------------------|
E|----------------------3----------------------------------------------------|


Intro samt mellemspil
D  -  Gmaj7  -  D  -  Gmaj7 


Vers:
D  -  Gmaj7  -  Em7  -  G  -  C 

D  -  B7  -  Em7 -  A7 


OmkvæD:
G  -  Em7b5  -  D  -  B7   

Em7  -  A7  -  Em7  -  A7    

Tap to rate this tab
# A B C D E F G H I J K L M N O P Q R S T U V W X Y Z