Song name
# A B C D E F G H I J K L M N O P Q R S T U V W X Y Z

Soulfly - Arise Again tab

Arise Again solo - Soulfly

sorry people, but i guessed alot of the parts of this song, like the sweeps and the long 
at the end...
and it got confusing because I couldnt tell if Max does parts of the solo or if Mark 
them, because max uses a 4-string sometimes


C#|-------------------------------------------------------------------------|
G#|--12-/20---12-/19---12-/18---12-/17--12~~~~~~~~--------------------------|
E |-------------------------------------------------8~~~~~~~~~~-9/11~~~~~---|
b |-------------------------------------------------------------------------|
F#|-------------------------------------------------------------------------|
B |-------------------------------------------------------------------------|


C#|-------------------------------------------------------------------------|
G#|-------------------------------------------------------------------------|
E |--22-(22)-22----------20-(20)-20-----------------------------------------|
b |-------------19~~~~~-------------17~~~~~---------------------------------|
F#|-------------------------------------------------------------------------|
B |-------------------------------------------------------------------------|
     b       r           b       r

C#|-----------15-19-15----------------13-17-13----------------10-15-10-------|
G#|--------17----------17----------15----------15----------12----------12----|
E |-----16----------------16----14----------------14----11----------------11-|
b |--17----------------------15----------------------12----------------------|
F#|--------------------------------------------------------------------------|
B |--------------------------------------------------------------------------|


C#|--------7-10-7-----------6-9-6-----------5-8-5---------------------------|
G#|------9--------9-------7-------7-------6-------6-------------------------|
E |----8------------8---6-----------6---5-----------5-----------------------|
b |--9----------------7---------------7---------------7---------------------|
F#|-------------------------------------------------------------------------|
B |-------------------------------------------------------------------------|


C#|-------------------------------------------------------------------------|
G#|--12-19--24~~~~~~--12-19--23~~~~~--12-19--24~~~~~--12-19--23~~~~~--------|
E |-------------------------------------------------------------------------|
b |-------------------------------------------------------------------------|
F#|-------------------------------------------------------------------------|
B |-------------------------------------------------------------------------|


C#|--------------------------------------------------------------------------|
G#|--------------------------------------------------------------------------|
E |-----------------------------------------------13-15-17----------13-15-17-|
b |-----------10-13-15----------10-13-15-13-15-17----------13-15-17----------|
F#|--10-13-15----------10-13-15----------------------------------------------|
B |--------------------------------------------------------------------------|

C#|-----------------------------------------------16-18-20----------16-18-20-|
G#|-----------16-18-20----------16-18-20-16-18-20----------16-18-20----------|
E |--15-17-19----------15-17-19----------------------------------------------|
b |--------------------------------------------------------------------------|
F#|--------------------------------------------------------------------------|
B |--------------------------------------------------------------------------|

C#|--23-23-23-23-23-23-23-23-23-23-23-23-23-23-23-23-23-23-23-23-23~~~~~~---|
G#|-------------------------------------------------------------------------|
E |-------------------------------------------------------------------------|
b |-------------------------------------------------------------------------|
F#|-------------------------------------------------------------------------|
B |-------------------------------------------------------------------------|
   gradual bending and tremolo

Tab Key:
x/ = slide up
x~ = vibrato
b  = bend
r  = release bend


sorry again about the roughness of the tab, but its as good as I could get it...

Please rate and leave a comment and tell me what you think, and if you have a correction 
the parts I screwed up...
Tap to rate this tab
 
# A B C D E F G H I J K L M N O P Q R S T U V W X Y Z