Song name
# A B C D E F G H I J K L M N O P Q R S T U V W X Y Z

Soulhat - Bonecrusher tab

---------------------------------------------------------------------------
			     Bonecrusher - SOULHAT
---------------------------------------------------------------------------
                         Transcribed by: Pete Pietroski
                            Tabbed by:Cade Nickels


Tuning: 1/2 step down



"This is a song... for my mother!"


Intro

  "And the boy she raised!"
    P.M.------------------|
e|--------|-------|---------|
B|--------|-------|---------|
G|--------|-------|---------|X8  
D|--------|-------|---------|
A|--5h7-7-|-5h7-7-|-5h7-7-7-|
E|--0---0-|-0---0-|-0---0-0-|


1st Verse   

    "Well...                I live...                   gamblin'... 
    P.M.----------------------------------------------------------------|            
e|------------------------|-----------------------|-----------------------|
B|------------------------|-----------------------|-----------------------|
G|------------------------|-----------------------|-----------------------|
D|------------------------|-----------------------|-----------------------|
A|--5h7-7--5h7-7--5h7-7-7-|-5h7-7--5h7-7--5h7-7-7-|-5h7-7--5h7-7--5h7-7-7-|
E|--0---0--0---0--0---0-0-|-0---0--0---0--0---0-0-|-0---0--0---0--0---0-0-|

    
    bonecrushing...     +   Yeah...                 I crush...
    P.M.----------------------------------------------------------------|
e|------------------------|-----------------------|-----------------------|
B|------------------------|-----------------------|-----------------------|
G|------------------------|-----------------------|-----------------------|
D|------------------------|-----------------------|-----------------------|
A|--5h7-7--5h7-7--5h7-7-7-|-5h7-7--5h7-7--5h7-7-7-|-5h7-7--5h7-7--5h7-7-7-|
E|--0---0--0---0--0---0-0-|-0---0--0---0--0---0-0-|-0---0--0---0--0---0-0-|

    
    I got...                and saying fuck!
    P.M.----------------------------------------|
e|------------------------|-----------------------|
B|------------------------|-----------------------|
G|------------------------|-----------------------|
D|------------------------|-----------------------|
A|--5h7-7--5h7-7--5h7-7-7-|-5h7-7--5h7-7--5h7-7-7-|
E|--0-0-0--0-0-0--0-0-0-0-|-0-0-0--0-0-0--0-0-0-0-|


Pre-chorus
                           
                            That's...
                           P.M.----------------|
e|-----------------------|-----------------------|
B|-----------------------|-----------------------|
G|-----------------------|-----------------------|
D|-----------------------|-----------------------|
A|------------------5h7--|-5h7-7--5h7-7--5h7-7-7-|
E|--0-2-3-4-5-5h6h7------|-0-0-0--0---0--0---0-0-|

                           
                           The bone...
                           P.M.----------------|
e|-----------------------|-----------------------|
B|-----------------------|-----------------------|
G|-----------------------|-----------------------|
D|-----------------------|-----------------------|
A|------------------5----|-5h7-7--5h7-7--5h7-7-7-|
E|--0-2-3-4-5-5h6h7---3--|-0---0--0---0--0---0-0-|

                           
                           That's...
                           P.M.----------------|
e|-----------------------|-----------------------|
B|-----------------------|-----------------------|
G|-----------------------|-----------------------|
D|-----------------------|-----------------------|
A|------------------5h7--|-5h7-7--5h7-7--5h7-7-7-|
E|--0-2-3-4-5-5h6h7------|-0-0-0--0---0--0---0-0-|

e|-----------------------|
B|-----------------------|
G|-----------------------|
D|-----------------------|
A|------------------5----|
E|--0-2-3-4-5-5h6h7---3--|

e|----------------------------|
B|----------------------------|
G|--------------------------2-|
D|--5-2-----4-2-------------2-|
A|------5-2-----5-2-3h5h5-5-0-|
E|----------------------------|


Brief pause.

    P.M.----------------------------------------------------------------|
e|------------------------|-----------------------|-----------------------|
B|------------------------|-----------------------|-----------------------|
G|------------------------|-----------------------|-----------------------|
D|------------------------|-----------------------|-----------------------|
A|--5h7-7--5h7-7--5h7-7-7-|-5h7-7--5h7-7--5h7-7-7-|-5h7-7--5h7-7--5h7-7-7-|
E|--0---0--0---0--0---0-0-|-0---0--0---0--0---0-0-|-0---0--0---0--0---0-0-|

    P.M.----------------|
e|------------------------|
B|------------------------|
G|------------------------|
D|------------------------|
A|--5h7-7--5h7-7--5h7-7-7-|
E|--0---0--0---0--0---0-0-|




2nd Verse

    "Big...                 stands...               line'...      
    P.M.----------------------------------------------------------------|       
e|------------------------|-----------------------|-----------------------|
B|------------------------|-----------------------|-----------------------|
G|------------------------|-----------------------|-----------------------|
D|------------------------|-----------------------|-----------------------|
A|--5h7-7--5h7-7--5h7-7-7-|-5h7-7--5h7-7--5h7-7-7-|-5h7-7--5h7-7--5h7-7-7-|
E|--0---0--0---0--0---0-0-|-0---0--0---0--0---0-0-|-0---0--0---0--0---0-0-|

    watch...            +   well I...                don't...
    P.M.----------------------------------------------------------------|
e|------------------------|-----------------------|-----------------------|
B|------------------------|-----------------------|-----------------------|
G|------------------------|-----------------------|-----------------------|
D|------------------------|-----------------------|-----------------------|
A|--5h7-7--5h7-7--5h7-7-7-|-5h7-7--5h7-7--5h7-7-7-|-5h7-7--5h7-7--5h7-7-7-|
E|--0---0--0---0--0---0-0-|-0---0--0---0--0---0-0-|-0---0--0---0--0---0-0-|

    got...                  shaped...
    P.M.----------------------------------------|
e|------------------------|-----------------------|
B|------------------------|-----------------------|
G|------------------------|-----------------------|
D|------------------------|-----------------------|
A|--5h7-7--5h7-7--5h7-7-7-|-5h7-7--5h7-7--5h7-7-7-|
E|--0-0-0--0-0-0--0-0-0-0-|-0-0-0--0-0-0--0-0-0-0-|



Pre-chorus
                           That's...
                           P.M.----------------|
e|-----------------------|-----------------------|
B|-----------------------|-----------------------|
G|-----------------------|-----------------------|
D|-----------------------|-----------------------|
A|------------------5h7--|-5h7-7--5h7-7--5h7-7-7-|
E|--0-2-3-4-5-5h6h7------|-0-0-0--0---0--0---0-0-|

                           The bone...
                           P.M.----------------|
e|-----------------------|-----------------------|
B|-----------------------|-----------------------|
G|-----------------------|-----------------------|
D|-----------------------|-----------------------|
A|------------------5----|-5h7-7--5h7-7--5h7-7-7-|
E|--0-2-3-4-5-5h6h7---3--|-0---0--0---0--0---0-0-|

                           That's...
                           P.M.----------------|
e|-----------------------|-----------------------|
B|-----------------------|-----------------------|
G|-----------------------|-----------------------|
D|-----------------------|-----------------------|
A|------------------5h7--|-5h7-7--5h7-7--5h7-7-7-|
E|--0-2-3-4-5-5h6h7------|-0-0-0--0---0--0---0-0-|

e|-----------------------|
B|-----------------------|
G|-----------------------|
D|-----------------------|
A|------------------5----|
E|--0-2-3-4-5-5h6h7---3--|

e|----------------------------|
B|----------------------------|
G|--------------------------2-|
D|--5-2-----4-2-------------2-|
A|------5-2-----5-2-3h5h5-5-0-|
E|----------------------------|


Chorus
      Say...
    ~~~~      P.M.----------------------------------------|
e|----------|-----------------------|-----------------------|
B|----------|-----------------------|-----------------------|
G|--3---4-2-|-----------------------|-----------------------|
D|--3---4-2-|-----------------------|-----------------------|
A|--1---2-0-|-5h7-7--5h7-7--5h7-7-7-|-5h7-7--5h7-7--5h7-7-7-|
E|----------|-0---0--0---0--0---0-0-|-0---0--0---0--0---0-0-|

      asking...
    ~~~~      P.M.----------------------------------------|
e|----------|-----------------------|-----------------------|
B|----------|-----------------------|-----------------------|
G|--3---4-2-|-----------------------|-----------------------|
D|--3---4-2-|-----------------------|-----------------------|
A|--1---2-0-|-5h7-7--5h7-7--5h7-7-7-|-5h7-7--5h7-7--5h7-7-7-|
E|----------|-0---0--0---0--0---0-0-|-0---0--0---0--0---0-0-|

    say...         
    ~~~~      P.M.----------------------------------------|
e|----------|-----------------------|-----------------------|
B|----------|-----------------------|-----------------------|
G|--3---4-2-|-----------------------|-----------------------|
D|--3---4-2-|-----------------------|-----------------------|
A|--1---2-0-|-5h7-7--5h7-7--5h7-7-7-|-5h7-7--5h7-7--5h7-7-7-|
E|----------|-0---0--0---0--0---0-0-|-0---0--0---0--0---0-0-|

    you know...
    ~~~~      P.M.----------------------------------------|
e|----------|-----------------------|-----------------------|
B|----------|-----------------------|-----------------------|
G|--3---4-2-|-----------------------|-----------------------|
D|--3---4-2-|-----------------------|-----------------------|
A|--1---2-0-|-5h7-7--5h7-7--5h7-7-7-|-5h7-7--5h7-7--5h7-7-7-|
E|----------|-0---0--0---0--0---0-0-|-0---0--0---0--0---0-0-|


bass & drums play rythym during solo



(sorry, don't know solo)



after so is...



Pre-chorus
                           
                            That's...
                           P.M.----------------|
e|-----------------------|-----------------------|
B|-----------------------|-----------------------|
G|-----------------------|-----------------------|
D|-----------------------|-----------------------|
A|------------------5h7--|-5h7-7--5h7-7--5h7-7-7-|
E|--0-2-3-4-5-5h6h7------|-0-0-0--0---0--0---0-0-|

                           
                           The bone...
                           P.M.----------------|
e|-----------------------|-----------------------|
B|-----------------------|-----------------------|
G|-----------------------|-----------------------|
D|-----------------------|-----------------------|
A|------------------5----|-5h7-7--5h7-7--5h7-7-7-|
E|--0-2-3-4-5-5h6h7---3--|-0---0--0---0--0---0-0-|

                           
                           That's...
                           P.M.----------------|
e|-----------------------|-----------------------|
B|-----------------------|-----------------------|
G|-----------------------|-----------------------|
D|-----------------------|-----------------------|
A|------------------5h7--|-5h7-7--5h7-7--5h7-7-7-|
E|--0-2-3-4-5-5h6h7------|-0-0-0--0---0--0---0-0-|

e|-----------------------|
B|-----------------------|
G|-----------------------|
D|-----------------------|
A|------------------5----|
E|--0-2-3-4-5-5h6h7---3--|

e|----------------------------|
B|----------------------------|
G|--------------------------2-|
D|--5-2-----4-2-------------2-|
A|------5-2-----5-2-3h5h5-5-0-|
E|----------------------------|


Chorus
      Say...
    ~~~~      P.M.----------------------------------------|
e|----------|-----------------------|-----------------------|
B|----------|-----------------------|-----------------------|
G|--3---4-2-|-----------------------|-----------------------|
D|--3---4-2-|-----------------------|-----------------------|
A|--1---2-0-|-5h7-7--5h7-7--5h7-7-7-|-5h7-7--5h7-7--5h7-7-7-|
E|----------|-0---0--0---0--0---0-0-|-0---0--0---0--0---0-0-|

      asking...
    ~~~~      P.M.----------------------------------------|
e|----------|-----------------------|-----------------------|
B|----------|-----------------------|-----------------------|
G|--3---4-2-|-----------------------|-----------------------|
D|--3---4-2-|-----------------------|-----------------------|
A|--1---2-0-|-5h7-7--5h7-7--5h7-7-7-|-5h7-7--5h7-7--5h7-7-7-|
E|----------|-0---0--0---0--0---0-0-|-0---0--0---0--0---0-0-|

      say...         
    ~~~~      P.M.----------------------------------------|
e|----------|-----------------------|-----------------------|
B|----------|-----------------------|-----------------------|
G|--3---4-2-|-----------------------|-----------------------|
D|--3---4-2-|-----------------------|-----------------------|
A|--1---2-0-|-5h7-7--5h7-7--5h7-7-7-|-5h7-7--5h7-7--5h7-7-7-|
E|----------|-0---0--0---0--0---0-0-|-0---0--0---0--0---0-0-|

      you know...                            yeah, so long ago
    ~~~~      P.M.-----------------------------------------|
e|----------|-----------------------|-----------------------|
B|----------|-----------------------|-----------------------|
G|--3---4-2-|-----------------------|-----------------------|
D|--3---4-2-|-----------------------|-----------------------|
A|--1---2-0-|-5h7-7--5h7-7--5h7-7-7-|-5h7-7--5h7-7--5h7-7-7-|
E|----------|-0---0--0---0--0---0-0-|-0---0--0---0--0---0-0-|


                                   "So long ago

e|------------------------|-----------------------|-----------------------|
B|------------------------|-----------------------|-----------------------|
G|------------------------|-----------------------|-----------------------|
D|------------------------|-----------------------|-----------------------|
A|--5h7-7--5h7-7--5h7-7-7-|-5h7-7--5h7-7--5h7-7-7-|-5h7-7--5h7-7--5h7-7-7-|
E|--0---0--0---0--0---0-0-|-0---0--0---0--0---0-0-|-0---0--0---0--0---0-0-|
      
               yeah, so long ago

e|------------------------|-----------------------|-----------------------|
B|------------------------|-----------------------|-----------------------|
G|------------------------|-----------------------|-----------------------|
D|------------------------|-----------------------|-----------------------|
A|--5h7-7--5h7-7--5h7-7-7-|-5h7-7--5h7-7--5h7-7-7-|-5h7-7--5h7-7--5h7-7-7-|
E|--0---0--0---0--0---0-0-|-0---0--0---0--0---0-0-|-0---0--0---0--0---0-0-|




Pre-chorus
                           
                            That's...
                           P.M.----------------|
e|-----------------------|-----------------------|
B|-----------------------|-----------------------|
G|-----------------------|-----------------------|
D|-----------------------|-----------------------|
A|------------------5h7--|-5h7-7--5h7-7--5h7-7-7-|
E|--0-2-3-4-5-5h6h7------|-0-0-0--0---0--0---0-0-|

                          
                           The bone...
                           P.M.----------------|
e|-----------------------|-----------------------|
B|-----------------------|-----------------------|
G|-----------------------|-----------------------|
D|-----------------------|-----------------------|
A|------------------5----|-5h7-7--5h7-7--5h7-7-7-|
E|--0-2-3-4-5-5h6h7---3--|-0---0--0---0--0---0-0-|

                           
                           That's...
                           P.M.----------------|
e|-----------------------|-----------------------|
B|-----------------------|-----------------------|
G|-----------------------|-----------------------|
D|-----------------------|-----------------------|
A|------------------5h7--|-5h7-7--5h7-7--5h7-7-7-|
E|--0-2-3-4-5-5h6h7------|-0-0-0--0---0--0---0-0-|

e|-----------------------|
B|-----------------------|
G|-----------------------|
D|-----------------------|
A|------------------5----|
E|--0-2-3-4-5-5h6h7---3--|

e|----------------------------|
B|----------------------------|
G|--------------------------2-|
D|--5-2-----4-2-------------2-|
A|------5-2-----5-2-3h5h5-5-0-|
E|----------------------------|







| /  slide up
| \  slide down
| h  hammer-on
| p  pull-off
| ~  vibrato
| +  harmonic
| x  Mute note


===========================================================================
                        Learn it. Rate it. Play it.
===========================================================================


Lyrics:

(Verse 1)

Well I'm the mighty Bonecrusher and I live way out west 
I'm a gambling' man by nature but bonecrushin's what I do best, 
Yea well I'm the mighty Bonecrusher and I'll crush your bones for a buck 
I got a Ph.D. in knife fighting and saying fuck, 

(Pre-Chorus)

That's what I'm sayin', with the Bonecrusher all day 
That's what I'm sayin' 

(Verse 2)

I'm the mighty Bonecrusher, yes I got some class 
Took my funky RV to the White House and I parked it up on the grass, 
I slipped inside the Oval Office, man I slipped in oh so fast 
Got the President by his necktie and I wiped my funky ass, 

(Pre-Chorus)

That's what I'm sayin', with the Bonecrusher all day 
That's what I'm sayin' 

(Chorus)

Say Bonecrusher, please don't crush my bones 
Askin' nicely won't help you don't you know? 
Say Bonecrusher, please don't crush my bones 
You know I lost my hearing so long ago... 

(Verse 3)

Big bad Bonecrusher, stand eleven foot tall 
Line you perverts up like cans and watch me crush you all, 
Well I say whatever I want to, don't pay attention to grammar 
Got a big long middle finger, shaped just like a ball peen hammer, 

(Pre-Chorus)

That's what I'm sayin', with the Bonecrusher all day 
That's what I'm sayin' 

(Verse 4)

Well I'm the mighty Bonecrusher, I just got back from Hell 
Where I crushed the Devil and I fucked his wife & the little demons as well, 
I got a big, bad bonecrushin' snake that crawls up and down my back 
I got a bad couple'a bulldogs that I keep high on crack, 
Find More lyrics at www.sweetslyrics.com

(Pre-Chorus)

That's what I'm sayin', with the Bonecrusher all day 
That's what I'm sayin' 

(Chorus)

Say Bonecrusher, please don't crush my bones 
Askin' nicely won't help you don't you know? 
Say Bonecrusher, please don't crush my bones 
You know I lost my hearing so long ago... 

(Bridge 1)

Now that I've grown, gonna crush everything I see, 
even the little, small flowers 

(break) 

(Verse 5)

Well I'm the mighty Bonecrusher, now don't you get saucy with me 
I got no concept of tenderness, I know that's hard for you to believe, 
Well I'm the mighty Bonecrusher, and I swear I was born to be 
Well I'm gonna keep on crushin'til somebody crushes me, 

(Bridge 2)

I crushed my wife because I didn't want to hit her 
And I keep on smoking cause I don't want to be no quitter, 

(Verse 6)

Well I'm the mighty Bonecrusher, I crushed NYC 
Wasn't nearly half as bad as they make it look like on TV, 
I jumped down from the Empire State, landed on my head 
Got up and did a little funky dance, just to prove that I wasn't dead yet, 

(Pre-Chorus)

That's what I'm sayin', with the Bonecrusher all day 
That's what I'm sayin' 

(Chorus)

Say Bonecrusher, please don't crush my bones 
Askin' nicely won't help you don't you know? 
Say Bonecrusher, please don't crush my bones 
You know I lost my hearing so long ago... 

(Outro)

So long ago, So long ago, So long ago... 









Ok UG, here is the link. These guys are awsome!




http://www.soulhat.net/records.html
Tap to rate this tab
# A B C D E F G H I J K L M N O P Q R S T U V W X Y Z