Song name
# A B C D E F G H I J K L M N O P Q R S T U V W X Y Z

Soulive - Steppin tab

-------------------------------------------------------------------------------
			     Steppin' - Soulive
-------------------------------------------------------------------------------
Tabbed by: Kent

Great tune off "Turn It Out", an amazing album I assume everyone has.

There's a little kanoodling going on here, this is a pretty good tab though.

Intro riff:
e|--------------------------|
B|--------------------------|
G|--------------------------|
D|-7--(5)-------7\----------|  X8
A|-7---5--------7\----------|
E|------8-7-5---5\----------|

0:20
Main guy:
e|------------------------------------------------------------------------------------------|
B|---------------------------------------8------------10------------------------------------|
G|-7/9-7/9-7-5---(5)-7/9-7-5--5-5---5-5----9/11-7-5----(5)-9p7p5---9p7p5--(5)-9p7p5---9p7p5-|
D|------------7-7-----------7----------------------7-7---------7-------7----------7--------7|  X2
A|------------------------------------------------------------------------------------------|
E|------------------------------------------------------------------------------------------|

0:41
Other main guy:
e|----------------------------------------10-10--------|
B|----------------------------------------10-10--------|
G|-9/11-9/11-9-7---(7)-9/11-9-7--7-7---7-7-------------|
D|--------------9-9------------9-----------------------|
A|-----------------------------------------------------|
E|-----------------------------------------------------|

e|------------------------------------------------------------------|
B|-10-------------12------------------------------------------------|
G|---9/11-9-7---(7)--9h11-9-7----9h11-9-7--(7)-9h11-9-7----9h11-9-7-|
D|-----------9-9----------------------------------------------------|
A|------------------------------------------------------------------|
E|------------------------------------------------------------------|
play these last two together, obviously
X2

1:01
intro riff X4

1:11
Main guy X2

1:32
Other main guy X2

1:52
sick refrain:
e|---------------------------------------------------------------------------|
B|--------------11-----------------------------------------------------------|
G|---------12-10-12-9-10--12-10-12-10-9--------------------------------------|
D|--------12--------------------------12-10-8-12--8h10-----------------------|  X4
A|-10-10-10------------------------------------------------------------------|
E|---------------------------------------------------------------------------|

2:13
Intro riff X4

Solos and such....

 3:45
sick refrain X4

4:04
here are the quick lead in chords into the next part: 

E7add9         G13
(quick)       (hold)


e|------------------------------------------------------|
B|-------10--7--5----7--5--------10--7--5----7-5--------|
G|-6-----11--9--6----7--5--6-----11--9--6----7-4--------|
D|-5------9--7--4----5--4--5------9--7--4----6-3--------| repeat....
A|-7-----10--9--5----7--5--7-----10--9--5----7-x--------|
E|-5-----------------------5-------------------3--------|

these are the names of the above chords for the second half of he song:

A7           Gmaj7add9   f#m7   Dmaj7add9       em7add9   D7add9
A7           Gmaj7add9   f#m7   Dmaj7add9          E7add9 G13

I'm not so sure about the f#m7 here. when you play it in the voicing indicated
above it sounds ok...who knows? if anyone knows the real chords, let me know,
even though you have no way to reach me. actually i'm not 100% on a couple of
the chords here, it's fun to play though.

4:19
second half theme:
play over the above chords
e|------------------------------------------------------------------------------|
B|------------------------------------------------------------------------------|
G|---------------------------------------9-11-9\--9-----------------------------|
D|---7-9-9/11-11\9v---9---7vv--------9/11----11\--9---7vv-----------------------| 
A|-/9---------------(9)-(9)--------------------(/9)-(9)-------------------------|
E|------------------------------------------------------------------------------|
between those parts, can throw in a little fill
(quiet one he does first time around:)
D|----7----------------------------------------------------------------------|
A|-7/9-9v--------------------------------------------------------------------|
E|---------------------------------------------------------------------------|

play it twice, then twice with the keys. when playing with the keys the guitarist throws
in the E7add9 and G13 at the end as well.

more solos and such....

6:40
second half theme X2

then hold the G13 for a bit

end on two quick A7's

cool.

| /  slide up
| \  slide down
| h  hammer-on
| p  pull-off
| ~  vibrato
| +  harmonic
| x  Mute note
===============================================================================
Tap to rate this tab
 
# A B C D E F G H I J K L M N O P Q R S T U V W X Y Z