Song name
# A B C D E F G H I J K L M N O P Q R S T U V W X Y Z

Sound Tribe Sector 9 - Circus tab

e|----------11-------14----------------11-11-11-11-11-11----11---------------|
B|----11-13----13-11----11-13----11-13-------------------13----13-11---------|
G|---------------------------------------------------------------------------|
D|---------------------------------------------------------------------------|
A|---------------------------------------------------------------------------|
E|---------------------------------------------------------------------------|

e|----------11-------14----14-------------14--------11-11-11----11-----------|
B|----11-13----13-11----11----11-11-11-11----11-13-----------13----13-11-----|
G|---------------------------------------------------------------------------|
D|---------------------------------------------------------------------------|
A|---------------------------------------------------------------------------|
E|---------------------------------------------------------------------------|

Great song and a catchy little riff. Have fun...
Tap to rate this tab
# A B C D E F G H I J K L M N O P Q R S T U V W X Y Z