Song name
# A B C D E F G H I J K L M N O P Q R S T U V W X Y Z

Sound Zero - Beast tab

X=mute
~=vibrato
*=pinch harmonic
h=hard-on
p=pull-off


---------------------------------------------------------------------------|
---------------------------------------------------------------------------|
---------------------------------------------------------------------------|
-----2--2--5--2-xx-5--2--2--5--2-xx----------------------------------------|
-----0--0--3--0-xx-3--0--0--3--0-xx--5-------------------------------------|
-------------------------------------3-------------------------------------|
     \________________________________/ repeat 4x


---------------------------------------------------------------------------|
---------------------------------------------------------------------------|
---------------------------------------------------------------------------|
---------------------------------------------------------------------------|
---0-0-3*~--0-00-3*~--0-0-3*~--0-00----------------------------------------|
------------------------------------3*~------------------------------------|
   \__________________________________/ repeat 1x


---------------------------------------------------------------------------|
---------------------------------------------------------------------------|
---------------------------------------------------------------------------|
-----2--2--5--2-xx-5--2--2--5--2-xx----------------------------------------|
-----0--0--3--0-xx-3--0--0--3--0-xx--5-------------------------------------|
-------------------------------------3-------------------------------------|
     \________________________________/ repeat 4x

---------------------------------------------------------------------------|
---------------------------------------------------------------------------|
---------------------------------------------------------------------------|
---------------------------------------------------------------------------|
---0-0-3*~--0-00-3*~--0-0-3*~--0-00----------------------------------------|
------------------------------------3*~~~----------------------------------|
                                           then solo
solo:
---------------------------------------------------------------------------|
------8--8-----------------------------------------------------------------|
------7^-7^~~--7^-5---5----------------------------------------------------|
--------------------7---7-5h7p5---5----------------------------------------|
--------------------------------7---7-5h7p5--------------------------------|
--------------------------------------------8-5~~--------------------------|


---------------------------------------------------------------------------|
-------------------------------5^-----5^-------5^-----5^-------------------|
-----------------------5---5---5^-----5^-------5^-----5^-------------------|
---------------5---5h7---7---7----7-7----7-5-7----7-7----7-5-7-------------|
-------5---5h7---7---------------------------------------------5^----------|
---5h8---8-----------------------------------------------------------------|
                                  \______________________________/repeat 1x

---------------------------------------------------------------------------|
---------------------------------------------------------------------------|
---------------------------------------------------------------------------|
-----2--2--5--2-xx-5--2--2--5--2-xx----------------------------------------|
-----0--0--3--0-xx-3--0--0--3--0-xx--5-------------------------------------|
-------------------------------------3-------------------------------------|
     \________________________________/ repeat 4x

end solo:
---------------------------------------------------------------------------|
------8--8--8--8-----------------------------------------------------------|
------7^-7^-7^-7^~~--7p5p0-7p5p0-7p5p0-7p5p0------------------5^-----------|
---------------------------------------------7h5p0------------5^--2--2-----|
---------------------------------------------------7h5p0----------0--0-----|
---------------------------------------------------------8p5~--------------|
Tap to rate this tab
# A B C D E F G H I J K L M N O P Q R S T U V W X Y Z