Song name
# A B C D E F G H I J K L M N O P Q R S T U V W X Y Z

Southborder - Do You Believe In Me tab

intro:

  e|------------9h10-9-7-5---------------------|
  b|----------------------------------10-7-5---|
  g|-6-7-9-----------------------------------7-|
  d|-------767-------------------6-7-----------|
  a|-----------------------9-7-----------------|
  E|-------------------------------------------|

 intro / verse / chorus :  E  , A  , G#m , B


bass:
  e|------------------------------------------|
  b|------------------------------------------|
  g|------------------------------------------|
  d|------------------------------------------|
  a|------------------------------------------|
  E|-0-0-00--5-5-55--4-4-44--7-7-7h9-5-4-2-0--|
Tap to rate this tab
# A B C D E F G H I J K L M N O P Q R S T U V W X Y Z