Song name
# A B C D E F G H I J K L M N O P Q R S T U V W X Y Z

Southern Culture On The Skids - Camel Walk tab

#----------------------------------PLEASE NOTE---------------------------------#
#This file is the author's own work and represents their interpretation of the #
#song. You may only use this file for private study, scholarship, or research. #
#------------------------------------------------------------------------------##
#

From: M-Python 
Subject: Re: REQ: Camel Walk by Southern Culture on the Skidz
Date: Fri, 27 Sep 1996 12:54:49 -0600

|---------------------------------------------------------------|
|---------------------------------------------------------------|
|---4-4-------------------------------4-4-----------------------|
|--------5-4---4-4------------------------5-4---4-4-------------|
|-2----------2----------------------2----------2----------------|
|-------------------2^3^2-2^3^2--------------------2^3^2-2^3^2--|

|--------------------------------------------------------|
|-4-4--7--4-4--2-2-2-2-2----------------2-----2----------|
|-4-4--7--4-4--2-2-2-2-2----------------2--0--2---0------|
|-4-4--7--4-4--2-2-2-2-2----------------2--0--2---0------|
|-2-2--5--2-4--0-0-0-0-0----------------0--x--0---x------|
|------------------------------------------3------3------|
  <     Play 4x         >              <  Play 2x  >
Tap to rate this tab
 
# A B C D E F G H I J K L M N O P Q R S T U V W X Y Z