Song name
# A B C D E F G H I J K L M N O P Q R S T U V W X Y Z

Soviet Soviet - 1990 tab

-------------------------------------------------------------------------------
1990 - Soviet Soviet
-------------------------------------------------------------------------------

Tuning: Standard 

0:10
e|--------------------6-7----------------------------------------------------|
B|-5-5-5-5-5-5-5-5-5-4-----(4x)---5-5-5-5-5-5-5-5-5-4-2-7--5-(2x)------------|
G|---------------------------------------------------------------------------|
D|---------------------------------------------------------------------------|
A|---------------------------------------------------------------------------|
E|---------------------------------------------------------------------------|

e|--------------------6-7---------7-7-7-9-9-12-14----------------------------|
B|-5-5-5-5-5-5-5-5-5-4-----(2x)----------------------------------------------|
G|---------------------------------------------------------------------------|
D|---------------------------------------------------------------------------|
A|---------------------------------------------------------------------------|
E|---------------------------------------------------------------------------|
1:24
e|-7--6--9--2-4-7--6--9--2-4-7--6-9--2-4-7--6-9\-----------------------------|
B|---------------------------------------------------------------------------|
G|---------------------------------------------------------------------------|
D|---------------------------------------------------------------------------|
A|---------------------------------------------------------------------------|
E|---------------------------------------------------------------------------|

e|-77777777777-9999-11111111-12121212-11111111-1212-1111---------------------|
B|---------------------------------------------------------------------------|
G|---------------------------------------------------------------------------|
D|---------------------------------------------------------------------------|
A|---------------------------------------------------------------------------|
E|---------------------------------------------------------------------------|

e|-77777777-9999-11111111-12121212-11111111-9999-7777------------------------|
B|---------------------------------------------------------------------------|
G|---------------------------------------------------------------------------|
D|---------------------------------------------------------------------------|
A|---------------------------------------------------------------------------|
E|---------------------------------------------------------------------------|

e|-7-6-7-6-7-6-7-6-7-6-6-4\2/4/6---(2x)--------------------------------------|
B|---------------------------------------------------------------------------|
G|---------------------------------------------------------------------------|
D|---------------------------------------------------------------------------|
A|---------------------------------------------------------------------------|
E|---------------------------------------------------------------------------|

e|-7-6-9-6-7-6-9-6-7-6-6-4\2/4/6---7-6-9-6-7-6-9-6-7-6-6-4\2/4/6-7-----------|
B|---------------------------------------------------------------------------|
G|---------------------------------------------------------------------------|
D|---------------------------------------------------------------------------|
A|---------------------------------------------------------------------------|
E|---------------------------------------------------------------------------|

That's all. Easy to play, but sounds very cool^_^

http://sovietsoviet.bandcamp.com/

************************************

| /   slide up
| \   slide down
| h   hammer-on
| p   pull-off
| ~   vibrato
| +   harmonic
| x   Mute note
| b   Bend
| pb  Pre-bend
| br  Bend release
| pbr Pre-bend release
| brb Bend release bend

************************************
Tap to rate this tab
# A B C D E F G H I J K L M N O P Q R S T U V W X Y Z