Song name
# A B C D E F G H I J K L M N O P Q R S T U V W X Y Z

Space Monkeys - Let It Shine tab

Let It shine:

Mess around with this for build up
e--------------------------|
B--10-7--------10-7--------|
G-------7-----------7s5s7~-|
D--------------------------|
A--------------------------|
E--------------------------|


Intro:
e--------------------7--------|
B---10-7--------10-7---10-7---|
G--------7----7---------------|
D----------10-----------------|
A-----------------------------|
E-----------------------------| (x2)

  G..
e-----------------------7---------|
B------10-7--------10-7---10-7----|
G-----------7----7----------------|
D-------------10------------------|
A---------------------------------|
E---------------------------------|

D
Im feeling like a butterfly I flutter by the breeze
G                                       D
The moons not made of skunk its made of cheese
Im dealing to the chimpanzies that float around your schhol
If only you could score an ounce of cool

            G             D
How does it feel to be so stoned?
                  G                   D
You're out on the scene but you don't know
                   G               D
You're feeling the corners of your mind
           G
Im feeling fine
       D
Let it shine

They dropped into the looking glass to get yourself a mask
It fits you very nicely now you ask
You're pulling on your daddys joint he likes to get you high
And rave about the 60's till you die

How does it feel to be so stoned?
You're out on the scene but you don't know
You're feeling the corners of your mind
Im feeling fine, Let it shine, Let it Shine


Solo:
e-----------------------------------------------------------------------------------------|
A-------7-10-7-------7-10-----------7-10-7-------7-10--------8-8-10-8-7----8-8-10-8-7-----|
D-7-9-7--------7-9-7------7---7-9-7--------7-9-7------7-----------------9-------------9---|
G-----------------------------------------------------------------------------------------|
B-----------------------------------------------------------------------------------------|
E-----------------------------------------------------------------------------------------|


e------------------|
B-7---7------7 10~-|
G---9---7~-9-------|
D------------------|
A------------------|
E------------------|


e-----------------------------------------------------------------------------------------|
A-------7-10-7-------7-10-----------7-10-7-------7-10--------8-8-10-8-7----8-8-10-8-7-----|
D-7-9-7--------7-9-7------7---7-9-7--------7-9-7------7-----------------9-------------9---|
G-----------------------------------------------------------------------------------------|
B-----------------------------------------------------------------------------------------|
E-----------------------------------------------------------------------------------------|


e--------------10~-|
B-7---7------7 ----|
G---9---7~-9-------|
D------------------|
A------------------|
E------------------|

Im feeling like a butterfly I flutter by the breeze
But I don't need no trip to set me free

How does it feel to be so stoned?
You're out on the scene but you don't know
You're feeling the corners of your mind
Im feeling fine
Let it shine
Let it Shine
Tap to rate this tab
 
# A B C D E F G H I J K L M N O P Q R S T U V W X Y Z