Guitaretab - guitar tabs
Song name
# A B C D E F G H I J K L M N O P Q R S T U V W X Y Z

Spacehog - In The Meantime tab

e: Sat, 25 Apr 1998 13:31:58 EDT
From: Thomas Bowen 
Subject: s/spacehog/

Song: In The Meantime
Album:?(In The Meantime maybe?)
Artist: Spacehog
Tabbed by:Thomas Bowen

suggestions mail me plz this is my first tabbing 
here goes.

Opening piano or maybe organ arranged for guitar:

e |--4--4--5--5--4--4--5--5--4--4--5--5--|
b |---5--5--5--5--5--5--5--5--5--5--5--5-|
g |--------------------------------------|
d |--------------------------------------|
a |--------------------------------------|
E |--------------------------------------|

Opening bassrift:

g |--------------------------------------------------|
d |---------------------------------------0-12-14-12-|
a |--------11-12-13-14--------------------0-12-14-12-|
E |-0-0-12-------------11-12-13-14-14--2-------------|

Then it plays that a while and when it kix in you play the bass line and 
you play this without missing a beat after that bassline:
g |--------------------------------------|
d |-12-12-12-12--------------------------|
a |------------12-12-12-12---------------|
E |-----------------------12-12-12-12----|

Then guitar comes in hard on distrotion and this is the chorus to but 
verse is just that bassline here is chorus:
     A             D           F#m          B   Bflat
e |---------------------------2-2-x-x-x-x--2-2-1-1-------------------|
b |---------------------------2-2-x-x-x-x--4-4-3-3-------------------|
g |--------------7-7-x-x-x-x--2-2-x-x-x-x--4-4-3-3-------------------|
d |-7-7-x-x-x-x--7-7-x-x-x-x--4-4-x-x-x-x--4-4-3-3-------------------|
a |-7-7-x-x-x-x--5-5-x-x-x-x--4-4-x-x-x-x--2-2-1-1-------------------|
E |-5-5-x-x-x-x--x-x-x-x-x-x--2-2-x-x-x-x--2-2-1-1-------------------|

Lyrics:   (Courtesy of
...and in the end we shall achieve in time
the thing they call divine
when all the stars will smile for me,
then all is well and well was all for all
and forever after,
maybe in the meantime wait and see

We love the all the all of you
Our lands are green and sky is blue
When all in all we're just like you
We love the all of you

...and when I cry for me I cry for you
with tears of holy joy
for all the days you've still to come,
and did I ever say I'd never play
or fly toward the sun
maybe in the meantime something's gone


Well that sounds fine so I'll see ya sunshine
Give my love to the future of the humankind
OK, OK, that's not OK
and while it's on my mind there's a girl to fit the crime
of a future lovers dream that we've still to find
But In the Meantime


OK that is it and oh yeah in the chorus every now and then he throws in 
a bend
instead of the b and b flat on the G string like bending 4th up to 6th 
ok well
that is it e-mail me with comments.
[ Tab from: ]
Related for In The Meantime tab