Guitaretab - guitar tabs
Song name
# A B C D E F G H I J K L M N O P Q R S T U V W X Y Z

Spacehog - The Last Dictator tab

Last Dictator - Guitar

Submitted by John (jgostick@mcmail.com)

Heres the basics, I'll finish it some other time.

Intro: Played over main riff
    
E|-----2-----4-------||
B|--0----0-0----4----||
G|-------------------||	Play 4 times
D|-------------------||
A|-------------------||
E|-------------------||

Main Riff:
	E	F#	G#	G#	E	F#	C#
E|----------------------------------------------------------------------||
B|----------------------------------------------------------------------||
G|------1-1------3-3-----4-4-----4-4-----1-1-----3-3--6-6-6-6-6-6-6-6-6-||
D|------2-2------4-4-----6-6-----6-6-----2-2-----4-4--6-6-6-6-6-6-6-6-6-||
A|------2-2------4-4-----6-6-----6-6-----2-2-----4-4--4-4-4-4-4-4-4-4-4-||
E|--0-0------2-2-----4-4-----4-4-----0-0-----2-2------4-4-4-4-4-4-4-4-4-||

Chorus:
	A 	C#      Lead Lick	A	C#	G#	E	A	E
		    E|--4h5-5------||
		    B|--------5----||
		    G|-------------||
		    D|-------------||
		    A|-------------||
		    E|-------------||

	E   	D#	C#	C 

Solo:

E|-4s12-12-12-11-11-11-11--9-9-9-9--7-7-7-7-------------------------------||
B|-------------------------------------------7-9-10-10-9-10-9-9-----------||
G|------------------------------------------------------------------------||
D|------------------------------------------------------------------------||
A|------------------------------------------------------------------------||
E|------------------------------------------------------------------------||

Intro 
Verse
Chorus
Verse 
Chorus
Solo
Chorus
Chorus
Solo
[ Tab from: http://www.guitaretab.com/s/spacehog/21557.html ]
Related for The Last Dictator tab