Song name
# A B C D E F G H I J K L M N O P Q R S T U V W X Y Z

Spears Britney - Sometimes tab

t. See http://www.olga.net/faq/ for more information.                     #
#-----------------------------------------------------------------------------#

From: napfab@club-internet.fr
Date: Thu, 02 Mar 2000 18:04:29 +0100
Subject: s/spears_britney/sometimes.tab

         artist : Britney Spears
           song : SOMETIMES
      tabbed by : F@B 

Hey, as I got some mails from people who really enjoyed tha tab I made
of "...Baby one more time", here's the "Sometimes" tab just for you !
(and coming soon : 'crazy.tab' & 'crazy_stop_remix.tab' >>> UNDER
CONSTRUCTION ;-)


INTRO - play it "soft"...

e-|-----------------------------------------------------------------------|

B-|-----------------------------------------------------------------------|

G-|-----------7-8-10---------------7-8--------------------7-8-7-----------|

D-|---8--------------10---------10-----8-------------8-10-------10--------|

A-|--8------8-------------------------------------------------------------|

E-|-6---------------------------------------------------------------------|



VERSE

    A#                          F
e-|-1-----1---------------------------1------|
B-|-----3---------------------------1--------|
G-|---3---------------------------2----------|
D-|------------------------------------------|
A-|-1----------------------------------------|
E-|-----------------------------1------------|

    Cm7                            Fsus4
e-|-------7------------------------------6---5-------------|
B-|-----4------------------------------6-------------------|
G-|---5------------------------------5---------------------|
D-|--------------------------------3-----------------------|
A-|-3------------------------------------------------------|
E-|--------------------------------------------------------|

 repeat this once


PRE-CHORUS

    D#                   Fsus4
e-|-6-----6--------------------6---5----------------|
B-|-----8--------------------6----------------------|
G-|---8--------------------5------------------------|
D-|----------------------3--------------------------|
A-|-6-----------------------------------------------|
E-|-------------------------------------------------|

    A#      F               Gm
e-|-----1-------1-----------------3-------|
B-|---3-------1-----------------3-----3---|
G-|---------------------------3-----------|
D-|---------------------------------------|
A-|-1-------------------------------------|
E-|---------1---------------3-------------|

    D#                   A#
e-|-------6-----------------------------|
B-|-----8----------------------6--------|
G-|---8----------------------7-----7----|
D-|------------------------8------------|
A-|-6-----------------------------------|
E-|----------------------6--------------|

    D#                      D#           F
e-|-------6-----------------------------------|
B-|-----8-------------------8------------10---|
G-|---8---------------------8------------10---|
D-|-------------------------8------------10---|
A-|-6-----------------------6------------8----|
E-|-------------------------------------------|


CHORUS

A#  F  Cm7  Fsus4 (x2)


VERSE
(same thing as in the first one)


PRE-CHORUS
(same lyrics with the same chords)


CHORUS
(same chords with more lyrics)


BRIDGE

    D#                           D#     D7
e-|-6----------------------------6------5---|
B-|-8----------------------------8------7---|
G-|-8----------------------------8------5---|
D-|-8----------------------------8------7---|
A-|-6----------------------------6------5---|
E-|-----------------------------------------|

                             D7 Gm
e-|--------------------------5--3--|
B-|--------------------------7--3--|
G-|--------------------------5--3--|
D-|--------------------------7--5--|
A-|--------------------------5--5--|
E-|-----------------------------3--|

                 Gm C7
e-|--------------3--3---------|
B-|--------------3--5---------|
G-|--------------3--3---------|
D-|--------------5--5---------|
A-|--------------5--3---------|
E-|--------------3------------|

    D#                 F
e-|-6------------------8--------|-----|
B-|-8------------------10-------|-----|
G-|-8------------------10-------|-----|
D-|-8------------------10-------|--*--| >> the "*" means that you have
A-|-6------------------8--------|-----|    to begin the next part right
E-|-----------------------------|-----|    here and right now !

 then, replay the intro twice like this

   (*)
e-|-----------------------------------------------------------------------|

B-|-----------------------------------------------------------------------|

G-|---------7-8-10---------------7-8--------------------7-8-7-------------|

D-|-8--------------10---------10-----8-------------8-10-------10----12----|

A-|-------8---------------------------------------------------------------|

E-|-----------------------------------------------------------------------|

  |
  | 2nd guitar (acoustic)
e-|-----------------------------------------------------------------------|

B-|-----------------------------------------------------------------------|

G-|-----------------------------------------------------------------------|

D-|----------------------------------------------------------------/12-12-|

A-|-----------------------------------------------------------------------|

E-|-----------------------------------------------------------------------|

e-|-----------------------------------------------------------------------|

B-|-----------------------------------------------------------------------|

G-|---------7-8-10--------------------------------------7-8-7-------------|

D-|-8--------------10------------------------------8-10-------10---8-7-8--|

A-|-------8---------------------------------------------------------------|

E-|-----------------------------------------------------------------------|

  |
  | 2nd guitar
e-|-----------------------------------------------------------------------|

B-|--------------------------8/10-11-10-8---------------------------------|

G-|------------------------------------------5/7--------7-8-7-------------|

D-|(12)--------------------------------------------8-10-------10---8-7-8--|

A-|-----------------------------------------------------------------------|

E-|-----------------------------------------------------------------------|



CHORUS (one half step up !)

B  F#  C#m7  F#sus4 (x4)

...and repeat with fade out !
Tap to rate this tab
# A B C D E F G H I J K L M N O P Q R S T U V W X Y Z