Song name
# A B C D E F G H I J K L M N O P Q R S T U V W X Y Z

Spector - Chevy Thunder tab

Spector Chevy Thunder     Solo

Tuning: Standard


e|---------------------------------------10-12------10--10-12-12-12--|
B|---12-12-12-10---10-10-----10-----10-12---------10--10-------------|
G|---------------11--------11--11------------------------------------|
D|-------------------------------------------------------------------|
A|-------------------------------------------------------------------|
E|-------------------------------------------------------------------|

e|-14-12-10-12-10------------------------------------------------------|
B|---------------h12/15--15-15-15-14-12--------------------------------|
G|--------------------------------------14~--16-16-18-16-14-13--/18-18-|
D|---------------------------------------------------------------------|
A|---------------------------------------------------------------------|
E|---------------------------------------------------------------------|

e|------------------------------|
B|------------------------------|
G|-18-16-14-13-14~--------------|
D|------------------------------|
A|------------------------------|
E|------------------------------|
Tap to rate this tab
# A B C D E F G H I J K L M N O P Q R S T U V W X Y Z