Song name
# A B C D E F G H I J K L M N O P Q R S T U V W X Y Z

Spencer Bell - Tourist tab

Artist: Spencer Bell
Song: Tourist
Album: Feudal Brutal And The American Dream


A beautiful song by an amazing artits. Repeat the whole tabs twice.


   A                   A7                         D           Dm
e|--------------------------------------------------2-2---2-2---1-1---1-1-|
b|---2-2---2-2---2-2---2-2---2-2---2-2---2-2--------3-3---3-3---3-3---3-3-|
G|---2-2---2-2---1-1---1-1---0-0---0-0---0-0------------------------------|
D|-------2-----------2-----------2-----------0~---0-----------0-----------|
A|-0-----------0-----------0-----------0----------------0-----------0-----|
E|------------------------------------------------------------------------|


   A           E           A           E           A           D           Dm
e|----------------------------------------------------------------2-2---2-2---1-1---1-1----|
b|---2-2---2-2---------------2-2---2-2---------------2-2---2-2----3-3---3-3---3-3---3-3----|
G|---2-2---2-2---1-1---1-1---2-2---2-2---1-1---1-1---2-2---2-2-----------------------------|
D|-------2-------2-2---2-2-------2-------2-2---2-2-------2------0-----------0-----------0~-|
A|-0-----------------2-----0-----------------2-----0------------------0-----------0--------|
E|-------------0-----------------------0---------------------------------------------------|


   A                        A7                  D           Dm
e|---------------------------------------2-2---2-2---1-1---1-1----|
b|---2-2---2-2---2-2---2-2---2-2---2-2---3-3---3-3---3-3---3-3----|
G|---2-2---2-2---1-1---1-1---0-0---0-0----------------------------|
D|-------2-----------2-----------2-----0-----------0-----------0~-|
A|-0-----------0-----------0-----------------0-----------0--------|
E|----------------------------------------------------------------|


   A           E           B           E           A           A7
e|-------------------------------------------------------------------|
b|---2-2---2-2---------------4-4---4-4---------------2-2---2-2---2-2-|
G|---2-2---2-2---1-1---1-1---4-4---4-4---1-1---1-1---2-2---1-1---0-0-|
D|-------2-------2-2---2-2-------4-------2-2---2-2-------2-----------|
A|-0-----------------2-----2-----------------2-----0-----------0-----|
E|-------------0-----------------------0-----------------------------|


   D           Dm           C#                      A                      C#
e|---2-2---2-2---1-1---1-1~----------------------------------------------------------------------|
b|---3-3---3-3---3-3---3-3~---5-5---5-5---5-5---5-----2-2---2-2---2-2---2-----5-5---5-5---5-5---5|
G|----------------------------6-6---6-6---6-6---6-----2-2---2-2---2-2---2-----6-6---6-6---6-6---6|
D|-0-----------0------------------6-----------6-----------2-----------2-----------6-----------6--|
A|-------0-----------0------4-----------4---------2-0-----------0---------2-4-----------4--------|
E|-----------------------------------------------------------------------------------------------|


     A                         C#          A                       B           A
e|-----------------------------------------------------------------------------------------|
b|-----2-2---2-2---2-2---2-2-----5-5---5-5---2-2---2-2---9-9---9-9---4-4---4-4---2-2---2-2-|
G|-----2-2---2-2---2-2---2-2-----6-6---6-6---2-2---2-2---9-9---9-9---4-4---4-4---2-2---2-2-|
D|---------2-----------2-------------6-----------2-----------9-----------4-----------2-----|
A|-2-0-----------0-----------2-4-----------0-----------7-----------2-----------0-----------|
E|-----------------------------------------------------------------------------------------|


   A          C#          B           A                       C#          B
e|------------------------------------------------------------------------------------|
b|---2-2---2----5-5---5-5---4-4---4-4---2-2---2-2---2-2---2-2---5-5---5-5---4-4---4-4-|
G|---2-2---2----6-6---6-6---4-4---4-4---2-2---2-2---2-2---2-2---6-6---6-6---4-4---4-4-|
D|-------2----------6-----------4-----------2-----------2-----------6-----------4-----|
A|-0----------4-----------2-----------0-----------0-----------4-----------2-----------|
E|------------------------------------------------------------------------------------|

  
   A           E     A     E  
e|-------------------------------------------------|
b|---2-2---2-2---------2-2-------------------------|
G|---2-2---2-2---1-1---2-2---1-1---1-1---1-1---1-1-|
D|-------2-------2-2---------2-2---2-2---2-2---2-2-|
A|-0-----------------0-----------2-----------2-----|
E|-------------0-----------0-----------0-----------|


The little solo goes like this:

e|-9-7-5---|
b|-------5-|
G|---------|
D|---------|
A|---------|
E|---------|

http://spencerbellmemorial.com/
Tap to rate this tab
 
# A B C D E F G H I J K L M N O P Q R S T U V W X Y Z