Song name
# A B C D E F G H I J K L M N O P Q R S T U V W X Y Z

Spica - Tonight tab

(www.spicaworld.com - an international SPICA fan forum with discussions relating to the group, and a collection of news, pictures and chords.)


-------------------------------------------------------------------------------
			     "Tonight" - SPICA
-------------------------------------------------------------------------------

By centurionofprix.
For comments or corrections, please contact me on Spicaworld.


The chords:
Verse: F Bb Dm7 C
Prechorus: Bb C Bb C
Chorus: F Bb Dm7 C
Bridge: Bbsus2 C Dm7 Bbsus2

Each chord is held for two measures.


The riffs:

chorus:
E|---------------------------------|
B|---------------------------------|
G|---------------------------------|
D|-3-3-3-3-3-3-3-3-3-3-3-3-5-5-5-5-|
A|---------------------------------|
E|---------------------------------|
over the F, Bb and Dm; on the C:
E|---------------------------------|
B|---------------------------------|
G|---------------------------------|
D|-3-3-3-3-2-2-2-2-0-0-0-0-2-2-2-2-|
A|---------------------------------|
E|---------------------------------|

the palm-muted arpeggio in the second and third verses:
E|-----------------------|-1---1---1--1---1---1--|-5---5---5--5---5---5--|-3---3---3--8-7-5-3---------|
B|-1---1---1--1---1---1--|--3---3---3--3---3---3-|--6---6---6--6---6---6-|--5---5---5---------6-5-3-1-|
G|--2---2---2--2---2---2-|---3----3-----3---3----|---5----5-----5---5----|---5----5-------------------|
D|---3----3-----3---3----|-----------------------|-----------------------|----------------------------|
A|-----------------------|-----------------------|-----------------------|----------------------------|
E|-----------------------|-----------------------|-----------------------|----------------------------|
The arpeggio just follows the underlying chords, with a little descending lick at the end of the second verse.

underneath Juhyun's second rap, thrice:
E|---------------------------------|
B|-1-1-1-1-3-3-3-3-5-5-5-5-6-6-6-6-|
G|---------------------------------|
D|---------------------------------|
A|---------------------------------|
E|---------------------------------|
and it ends with:
E|---------------------------------|
B|-/6--6-6-5-5-5-5-3-3-3-3-1-1-1-1-|
G|---------------------------------|
D|---------------------------------|
A|---------------------------------|
E|---------------------------------|
(slide up to the first F note here)
Tap to rate this tab
# A B C D E F G H I J K L M N O P Q R S T U V W X Y Z