Song name
# A B C D E F G H I J K L M N O P Q R S T U V W X Y Z

Spill Canvas - Black Dresses tab

Help us improve GuitareTab! Take a short survey!
Band:The Spill Canvas
Title:Black Dresses


This song takes about 7 minutes so the tab is a bit long.
pm.=palm mute
/&\=slide
h=hammer on
p=pull off
It sounds good when you play it so i think it should be 95%correct even
though i did it only by listening to the song.
Normaly Spill Canvas play dropped but it was easier like this so you can
play it dropped too.
Play around with the strumming and fills (most are given in the tab) and 
sometimes add some agression. :D


Intro
E----------------------------------------------------------------------------------------|
B------7-5h7-8-7-5------3-0h3-5-3-0------------------------------------------------------|
G-----------------------------------------2p0h2-0----2p0----0h2-0-4~---------------------|
D----------------------------------------------------------------------------------------|
A--------------------22----------------33---------33-----33------------------------------|
E---00-----------------------------------------------------------------------------------|
    pm.              pm.               pm.        pm.    pm.


E----------------------------------------------------------------------------------------|
B------7-5h7-8-7-5------3-0h3-5-3-0------------------------------------------------------|
G-----------------------------------------2p0h2-0----2p0----0-4-2-0----------------------|
D---------------------------------------------------------------------4/5\4/5-7----------|
A--------------------22----------------33---------33-----33------------------------------|
E---00-----------------------------------------------------------------------------------|
    pm.              pm.               pm.        pm.    pm.

Yeaaaah.....
E----------------------------3333-22-----------------------------------------------------|
B-----------------------------------------------------7----------------------------------|
G------------7~7777--555555--5555-44---------------7~7777--555555--24242424--------------|
D---2222xx--x7~7777--555555--5555-44x--2222222222--7~7777--555555--22222222--------------|
A---2222xx--x5~5555--333333--3333-22x--2222222222--5~5555--333333--00000000--------------|
E---0000xx--x-----------------------x--0000000000----------------------------------------|



E----2---------------------3333-222----------2222----------------------------------------|
B------------3----------------------------------------7----------------------------------|
G----------44-444--222222--5555-444----------------7~7777--555555--24242424--------------|
D--22-222--44-444--22-222--5555-444x---2222222222--7~7777--555555--22222222--------------|
A--22-222--22-222--00-000----------x---2222222222--5~5555--333333--00000000--------------|
E--00-000--------------------------x---0000000000----------------------------------------|


Verse

In muddy Grass...                                                  Just do as you're instructed and.... 
<...............x3.................>                                      
E----2---------------------3333-222-----2---------------------3333-222-333333333333333---|
B------------3----------------------------------3----------------------------------------|
G----------44-444--222222--5555-444-----------44-444--222222--5555-444-555555555555555---|
D--22-222--44-444--22-222--5555-444x--22-222--44-444--22-222--5555-444-555555555555555---|
A--22-222--22-222--00-000----------x--22-222--22-222--00-000-----------------------------|
E--00-000--------------------------x--00-000---------------------------------------------|


Pre-Chorus
         Take this razor......
<........................................x2..............................................>
E----------------------------------------------------------------------------------------|
B---------------------------------------------------------888888x8--777777x7-------------|
G---2424242424242424--4444444444444444--------------------999999x9--777777x7-------------|
D---------------------4444444444444444--7777777777777777--999999x9--777777x7-------------|
A---3333333333333333--5555555555555555--7777777777777777--777777x7--555555x5-------------|
E---------------------------------------5555555555555555---------------------------------|


Chorus
          My Secret...
<...............x3.................> 
E-------------------------55----44-------------------------------------------------------------|
B----------------------------------------------------------------------------------------------|
G---------99xx--77xx--55--55xx--55xx---------99xx--77xx--55--22222222--44444444--555555555\----|
D---0h20--99xx--77xx--55--55xx--55xx---0h20--99xx--77xx--55--22222222--44444444--555555555\-xx-|
A---0h20--77xx--55xx--33--33xx--33xx---0h20--77xx--55xx--33--00000000--22222222--333333333\-xx-|
E-------------------------------------------------------------------------------------------xx-|


The quivering liquids....
E---------------------------------------------------------3333333333333333---------------|
B----------------------------------------------------------------------------------------|
G---9999999999999999--7777777777777777--2222222222222222--5555555555555555---------------|
D---9999999999999999--7777777777777777--2222222222222222--5555555555555555---------------|
A---7777777777777777--5555555555555555--0000000000000000---------------------------------|
E----------------------------------------------------------------------------------------|

                                                                     quickly.
E----------------------------------------------------------------------------------------|
B----------------------------------------------------------------------------------------|
G---9999999999999999--7777777777777777--2222222222222222---------------------------------|
D---9999999999999999--7777777777777777--2222222222222222--00xx0x0xxxx--------------------|
A---7777777777777777--5555555555555555--0000000000000000--00xx0x0xxxx--------------------|
E----------------------------------------------------------------------------------------|


Repeat this part completely (Intro, Verse, Pre-Chorus & Chorus) and repeat the last thing (00xx0x0xxxx).


Bridge
E-----2-----------------------3-2--2-----2-----------------------------------------------|
B-------------7----------------------------------7---------------------------------------|
G-----------77-7----55-5----5--5-4-------------77-7----55-5---2-0-2-0-2-4-2-0------------|
D---22-2----77--7---555-5----5----4----22-2----77--7---555-5-----------------------------|
A---22--2---55---5--33---3------------22--2---55---5--33---3-----------------------------|
E---00---0----------------------------00---0---------------------------------------------|


                                      Goodbye....
<...............x2.................>                                      
E----2---------------------3333-222------------------------------------------------------|
B------------3---------------------------------------------------------------------------|
G----------44-444--220222--5555-444------4~-2~---------7~-5~-2~--------------------------|
D--22-222--44-444--22-222--5555-444x--2~-4~-2~-2~--2~--5~-5~-2~---xx---------------------|
A--22-222--22-222--00-000----------x--2~-2~-0~-2~--2~--5~-3~-0~---xx---------------------|
E--00-000--------------------------x--0~-------0~--0~-------------xx---------------------|


But the irony of the story....
<...........x4.............>
E----2------23------------3----2------23-------------------------------------------------|
B----------------------------------------------------------------------------------------|
G---------44-----55-----22----------44-----55555-----------------------------------------|
D--22-xx--44--x--555xx--22---22-xx--44--x--55555-----------------------------------------|
A--22-xx------x--33-xx--00---22-xx------x--33333-----------------------------------------|
E--00-xx------x-----xx-------00-xx------x------------------------------------------------|


The ceremony was not proper...
E-------22222222--22222222----------33333333---------------------------------------------|
B----------------------------------------------------------------------------------------|
G-----------------44444444-55555555-22222222---------------------------------------------|
D---xxxx22222222--44444444-55555555-22222222---------------------------------------------|
A---xxxx22222222--22222222-33333333-00000000---------------------------------------------|
E---xxxx00000000-------------------------------------------------------------------------|


E-------22222222--22222222----------3333333333333333333333333\---------------------------|
B----------------------------------------------------------------------------------------|
G-----------------44444444-55555555-2222222222222222222222222\---------------------------|
D---xxxx22222222--44444444-55555555-2222222222222222222222222\---------------------------|
A---xxxx22222222--22222222-33333333-0000000000000000000000000\---------------------------|
E---xxxx00000000-------------------------------------------------------------------------|


Chorus
          My Secret...
<...............x3.................> 
E-------------------------55----44-------------------------------------------------------------|
B----------------------------------------------------------------------------------------------|
G---------99xx--77xx--55--55xx--55xx---------99xx--77xx--55--22222222--44444444--555555555\----|
D---0h20--99xx--77xx--55--55xx--55xx---0h20--99xx--77xx--55--22222222--44444444--555555555\-xx-|
A---0h20--77xx--55xx--33--33xx--33xx---0h20--77xx--55xx--33--00000000--22222222--333333333\-xx-|
E-------------------------------------------------------------------------------------------xx-|


The quivering liquids....
E---------------------------------------------------------3333333333333333---------------|
B----------------------------------------------------------------------------------------|
G---9999999999999999--7777777777777777--2222222222222222--5555555555555555---------------|
D---9999999999999999--7777777777777777--2222222222222222--5555555555555555---------------|
A---7777777777777777--5555555555555555--0000000000000000---------------------------------|
E----------------------------------------------------------------------------------------|

                                                                     quickly.
E----------------------------------------------------------------------------------------|
B----------------------------------------------------------------------------------------|
G---9999999999999999--7777777777777777--2222222222222222---------------------------------|
D---9999999999999999--7777777777777777--2222222222222222--00xx0x0xxxx--00xx0x0xxxx-------|
A---7777777777777777--5555555555555555--0000000000000000--00xx0x0xxxx--00xx0x0xxxx-------|
E----------------------------------------------------------------------------------------|

End with this.
E---------|
B---------|
G---------|
D---0h20--|
A---0h20--|
E---------|
Related for Black Dresses tab