Song name
# A B C D E F G H I J K L M N O P Q R S T U V W X Y Z

Spinal Tap - Gimme Some Money tab

Help us improve GuitareTab! Take a short survey!
This one is a bit difficult, but you'll get the hang of it.


^=bend
/=slide

-12^-12^-12^-12^------------------10-12-12-12-15---10-12-10-12-10--------------------|
------------------12^-12^-12^-12^-----------------------------------12^-12-0-10------|
-------------------------------------------------------------------------------------|
-------------------------------------------------------------------------------------|
-------------------------------------------------------------------------------------|
-------------------------------------------------------------------------------------|


-15-12-15-12-15/17-15-12-12-15---12^-12^-12^-----------12-------------------------------|
------------------------------------------------12-10-12----12-10-8-5-------------------|
----------------------------------------------------------------------------------------|
----------------------------------------------------------------------------------------|
----------------------------------------------------------------------------------------|
----------------------------------------------------------------------------------------|
Related for Gimme Some Money tab