Song name
# A B C D E F G H I J K L M N O P Q R S T U V W X Y Z

Spirit - Taurus tab

Many other versions of Taurus tab are incorrectly posted on the web with the 
first 4 bars of Stairway to Heaven tab. These 2 songs, based on a commonly 
used A minor descending chromatic walk are vastly different in composition and complexity. 
Only an amateur would confuse them for the same song.

(This tab has been corrected by Joe Spadaro)

Intro (4/4 time)

  Am      Am7       Amm7    Am6       Am      D         Am        G

E-----5-------5---|-----5-----5-5---|---5-5-----------|-----------------|
B-----5-----5-5---|---5-5-----5-5---|---5-5-----------|-----------------|
G---5-------5-----|---5-------5-5---|---3-3-----------|-----------------|
D-7-----7-6-----6-|-5-----5-4-----4-|-3-------0-------|------------5-/6-|
A-----------------|-----------------|-----------------|-0---------------|
E-----------------|-----------------|-----------------|-----------------|

(Below is Stairway To Heaven intro tab for comparison.)

Stairway To Heaven
Led Zeppelin (1971)

The resolve here is pure genius.

Intro (4/4 time)

  Am      Am7       Amm7    D         F                 G Am      F E
 
E-------5-7-----7-|-8-----8-2-----2-|-0---------0-----|-----------------|
B-----5-----5-----|---5-------3-----|---1---1-----1---|-0-1-1-----------|
G---5---------5---|-----5-------2---|-----2---------2-|-0-2-2-----------|
D-7-------6-------|-5-------4-------|-3---------------|-----------------|
A-----------------|-----------------|-----------------|-2-0-0---0--/8-7-|
E-----------------|-----------------|-----------------|-----------------|
Tap to rate this tab
 
# A B C D E F G H I J K L M N O P Q R S T U V W X Y Z