Song name
# A B C D E F G H I J K L M N O P Q R S T U V W X Y Z

Splandit - Sunrise tab

Splandit – Sunrise
Standart Tuning, Capo im 2. Bund


   E  A  D  G  H  e
F#( 0| 0|11|11|11| 0)
B ( 0| 0| 9| 8| 7| 0)
C#( 0| 0|11|10| 9| 0)
B*( 0| 0| 9|11|12| 0)

Strophe
   F#        B       C#            B*
e ------------------------------------------------------------------------|
B -11-x-11---7-x-7/---9—--9-x--9---12-x-12--12--12------------------------|
G -11-x-11---8-x-8/--10—-10-x-10---11-x-11--11--11------------------------|
D -11-x-11---9-x-9/--11—-11-x-11----9-x--9---9---9------------------------|
A ------------------------------------------------------------------------|
E ------------------------------------------------------------------------|

Chorus
   F#     	      C#                E                B*
e --0-0-0-0-0-0-0-0--0-0-0-0-0-0-0-0--0-0-0-0-0-0-0-0--0-0-0-0-0-0-0-0----|
B --0-0-0-0-0-0-0-0--0-0-0-0-0-0-0-0--0-0-0-0-0-0-0-0--0-0-0-0-0-0-0-0----|
G -1111111111111111--6-6-6-6-6-6-6-6--9-9-9-9-9-9-9-9--8-8-8-8-8-8-8-8----|
D -1111111111111111--6-6-6-6-6-6-6-6--9-9-9-9-9-9-9-9--9-9-9-9-9-9-9-9----|
A --9-9-9-9-9-9-9-9--4-4-4-4-4-4-4-4--7-7-7-7-7-7-7-7--9-9-9-9-9-9-9-9----|
E --0-0-0-0-0-0-0-0------------------------------------7-7-7-7-7-7-7-7----|

Bridge                         Solo Partytime…                    (letzter)
e ----------------------|-------------------------------------------------|
B ----------------------|-------------------------------------------------|
G ----------------------|-----------------8--11---------------------------|
D -11-11-11-11---9-9-9--|-----8--11----9--------------------9--8----------|
A -11-11-11-11---9-9-9--|---9-----------------------8--11---------11--(9)-|
E --9--9--9--9---7-7-7--|------------------------9------------------------|

Good morning my Darling, I hope that you had a nice sleep
Cause you know that today, I definitely
Need you to guide my way through this long, long day
So I’m begging you please don’t let me down and shine for me

Rise, rise, rise, rise so high
Shine, shine, shine, shine down from the sky
Rise, rise, rise, rise so high
Shine, shine, shine, shine so bright till the night arrives

So thanks for coming out today cause you make living nice and cosy
Providing power and energy for all these people around me
So we can all be on the loose, enjoy our lives an have some booze
Stick to the necessities of live and life from what this day provides

Rise, rise, rise, rise so high
Shine, shine, shine, shine down from the sky
Rise, rise, rise, rise so high
Shine, shine, shine, shine so bright till the night arrives

Good night to you my darling, I hope that I see you again
When I wake up in the morning in my friends parents destroyed garden where we gonna 
party all night long so everybody come on feel free and get exited all of you are invited

Rise, rise, rise, rise so high
Shine, shine, shine, shine down from the sky
Rise, rise, rise, rise so high
Shine, shine, shine, shine so bright till the night arrives

Partytime!
Tap to rate this tab
# A B C D E F G H I J K L M N O P Q R S T U V W X Y Z