Song name
# A B C D E F G H I J K L M N O P Q R S T U V W X Y Z

Splendora - Youre Standing On My Neck tab

this is 100% correct OK maybe 98.6 but it is my first tab
I only got 1 guitar there is another playing random stuff but i cant be arsed doing it.


 Intro
|-------------|-------------|-------------|-------------|
|-----0-------|-----0-------|-----0-------|-----0-------|
|-2-----2-----|-2-----2-----|-2-----2-----|-2-----2-----|
|---3-----3---|---3-----3---|---3-----3---|---3-----3---|
|-------------|-------------|-------------|-------------|
|-------------|-------------|-------------|-------------|

 Verse
  F5          Ab5            F5          Ab5
|--------------------------|---------------------------|
|--------------------------|---------------------------|
|--------------------------|---------------------------|
|-3-3-3-3-3-3-6-6-6-6-6--6-|-3-3-3-3-3-3-6-6-6-6-6--6--|
|-3-3-3-3-3-3-6-6-6-6-6--6-|-3-3-3-3-3-3-6-6-6-6-6--6--|
|-1-1-1-1-1-1-4-4-4-4-4--4-|-1-1-1-1-1-1-4-4-4-4-4--4--|


  F5          Bb5           C5   N.C.
|-------------------------|-------------|-------------|
|-------------------------|-------------|-------------|
|-------------3-3-3-3-3-3-|-5-----------|-------------|
|-3-3-3-3-3-3-3-3-3-3-3-3-|-5-----------|-------------|
|-3-3-3-3-3-3-1-1-1-1-1-1-|-3-----------|-3-----------|
|-1-1-1-1-1-1-------------|------6-4-6--|------6-4-6--|

   Chorus
    Db5           Ab5             Bb5
||------------------------------|------------------------------||
||o-----------------------------|-----------------------------o||
||--6-6-6-6-6-6-6---------------|------------------------------||
||--6-6-6-6-6-6-6--6-6-6--6-6-6-|--8-8-8-8-8-8-8-8--8-8-8--8---||
||o-4-4-4-4-4-4-4--6-6-6--6-6-6-|--8-8-8-8-8-8-8-8--8-8-8--8--o||
||-----------------4-4-4--4-4-4-|--6-6-6-6-6-6-6-6--6-6-6--6---||

 Post Chorus
  Db5  Ab5    Bb5
|-----------|--------------|
|-----------|--------------|
|-6---------|--------------|
|-6----6----|-8------------|
|-4----6----|-8------------|
|------4----|-6-------/13\-|

   Chorus 2
                                
    Db5           Ab5             Bb5
                                                              2.5x
||------------------------------|------------------------------||
||o-----------------------------|-----------------------------o||
||--6-6-6-6-6-6-6---------------|------------------------------||
||--6-6-6-6-6-6-6--6-6-6--6-6-6-|--8-8-8-8-8-8-8-8--8-8-8--8---||
||o-4-4-4-4-4-4-4--6-6-6--6-6-6-|--8-8-8-8-8-8-8-8--8-8-8--8--o||
||-----------------4-4-4--4-4-4-|--6-6-6-6-6-6-6-6--6-6-6--6---||

   Bridge
    Bb5         Db5             Eb5       AbBb5
                                                         3x
||----------------------------|--------------------------||
||o---------------------------|-------------------------o||
||--------------6-6-6-6-6-6-6-|-8-8-8-8-8----------------||
||--8-8-8-8-8-8-6-6-6-6-6-6-6-|-8-8-8-8-8-6-8-8-8-8-8-8--||
||o-8-8-8-8-8-8-4-4-4-4-4-4-4-|-6-6-6-6-6-6-8-8-8-8-8-8-o||
||--6-6-6-6-6-6---------------|-----------4-6-6-6-6-6-6--||


  Db5  Eb5    Bb5      Dsus2/Bb
                                    4x
|-----------|------||------0--------||
|-----------|------||o-3-----3-----o||
|-6----8----|------||----3-----3----||
|-6----8----|-8----||---------------||
|-4----6----|-8----||o-------------o||
|-----------|-6----||---------------||

 Breakdown
  F5          Ab5           F5          Ab5
|-------------------------|-------------------------|
|-------------------------|-------------------------|
|-------------------------|-------------------------|
|-3-3-3-3-3-3-6-6-6-6-6-6-|-3-3-3-3-3-3-6-6-6-6-6-6-|
|-3-3-3-3-3-3-6-6-6-6-6-6-|-3-3-3-3-3-3-6-6-6-6-6-6-|
|-1-1-1-1-1-1-4-4-4-4-4-4-|-1-1-1-1-1-1-4-4-4-4-4-4-|


  F5          Bb5
|-------------------------|
|-------------------------|
|-------------3-3-3-3-3-3-|
|-3-3-3-3-3-3-3-3-3-3-3-3-|
|-3-3-3-3-3-3-1-1-1-1-1-1-|
|-1-1-1-1-1-1-------------|
                                
  C5            Bb   Ab  Bb  C             Bb   Ab  Bb
|--------------------------|--------------------------|
|--------------------------|--------------------------|
|-5-5-5-5-5-5-5------------|-5-5-5-5-5-5-5------------|
|-5-5-5-5-5-5-5--8-8-6-6-8-|-5-5-5-5-5-5-5--8-8-6-6-8-|
|-3-3-3-3-3-3-3--8-8-6-6-8-|-3-3-3-3-3-3-3--8-8-6-6-8-|
|----------------6-6-4-4-6-|----------------6-6-4-4-6-|

 Outro
  Db5                Asus2/F
                                                          3x
|----------|-----||--------------|--------------||
|----------|-----||o-----0-------|-----0-------o||
|-6--------|-----||--2-----2-----|-2-----2------||
|-6--------|-----||----3-----3---|---3-----3----||
|-4--------|-----||o-------------|-------------o||
|----------|-----||--------------|--------------||


    Bbsus2/F#                         Asus2/F
                                                                  4x
||--------------|--------------||-||--------------|---------------||
||o-----1-------|-----1-------o||-||o-----0-------|-----0--------o||
||--3-----3-----|-3-----3------||-||--2-----2-----|-2-----2-------||
||----4-----4---|---4-----4----||-||----3-----3---|---3-----3-----||
||o-------------|-------------o||-||o-------------|--------------o||
||--------------|--------------||-||--------------|---------------||


intro
verse
chorus
post chorus
verse
chorus(2)
Bridge
breakdown 
verse
chorus
post chorus
outro

anyone who can come up with the 2nd guitar or corrections send to super_sammo20@hotmail.com
Tap to rate this tab
 
# A B C D E F G H I J K L M N O P Q R S T U V W X Y Z