Guitaretab - guitar tabs
Song name
# A B C D E F G H I J K L M N O P Q R S T U V W X Y Z

Squier Billy - The Stroke tab

----------------------------------------------------------------------
                        The Stroke By Billy Squier
----------------------------------------------------------------------
Tabbed by ledzeppelin0094

Intro

e|-----------|-----------|-----------|-------------|
B|-----------|-----------|-----------|-------------|
G|-5/7-7-7-7-|-----------|-5/7-7-7-7-|-------------|
D|-3/5-5-5-5-|-5/7-7-7-7-|-3/5-5-5-5-|-2-----------|
A|-----------|-3/5-5-5-5-|-----------|-0-5-3-2-----|
E|-----------|-----------|-----------|---3-1-0-----|

Song

e|------------------------------|---------------------------------|
B|---6-6p5---6-6p5---6-6p5------|---6-6p5---6-6p5---6-6p5---------|
G|------------------------------|---------------------------------|
D|-7-------7-------7--------5---|-7-------7-------7--------5------|
A|-5-------5-------5--------3-5-|-5-------5-------5--------3-5----|
E|----------------------------3-|----------------------------3----|

[ Tab from: http://www.guitaretab.com/s/squier-billy/18233.html ]
e|-----------------------------|-----------------------|---------------|
B|-----------------------------|-----------------------|---------------|
G|-----------------------------|-----------------------|---------------|
D|-----------------------------|-----------------------|---------------|
A|-12-12---12-12---12-12---5-3-|-12-12---12-12---12-12-|-----------3---|
E|-10-10---10-10---10-10---3-1-|-10-10---10-10---10-10-|-3-5-3-5-3---5-|


e|---------------------------------------------|-----------------|
B|---------------------------------------------|-----------------|
G|---------------------------------------------|-----------------|
D|------------------------------10/12-12-12-12-|-2---------------|
A|-3/5-5-5-5---10/12-12-12-12----8/10-10-10-10-|-0-5-3-2---------|
E|-1/3-3-3-3----8/10-10-10-10------------------|---3-1-0---------|


e|---------------------------------|
B|---------------------------------|
G|---------------------------------|  x4
D|-5-7-10-7------------------------|
A|-3-5-8--5---12-12---5-3----------|
E|------------10-10---3-1----------|


e|----------------|
B|----------------|
G|----------------|
D|----------------|
A|-8-5------------|
E|-----8-5-8-5-1--|

Play the whole thing other than the intro 3 times



Related for The Stroke tab
The Stroke chords by Squier Billy