Song name
# A B C D E F G H I J K L M N O P Q R S T U V W X Y Z

St Vincent - Your Lips Are Red tab

tuning: standard (EADGBe)

live she plays with capo on 2nd fret
(sometimes with a standard-tuned guitar
other times with a DGCFAd-tuned guitar)

verse riff
e-------------------------------------------------------------------|
B-------------------------------------------------------------------|
G-------------------------------------------------------------------|
D-------------------------------------------------------------------|
A-------------------------------------------------------------------|
E---8-8-8-8-8-8-8-8-8-8-8-8-8-8-8-6-8-8-8-8-8-8-8-8-8-8-8-8-8-8-8-6-|


extra fill on 2nd verse

e-------------------|
B-------------------|
G-------------------|
D-------------------|
A-------------------|
E---3---5---6---10--|

chorus (?) riff

strum this chord a couple of times
e--------|
B---13---|
G---12---|
D---10---|
A---10---|
E--(0)---|

then:
(you can play these notes where you want, not sure where she plays them)

e------------------------------------------------------------------------|
B--11-10-----------14-13-------------------------------------------------|
G------------------------------------------------------------------------|
D--------12---13---------15---12---13-12-----------15-14------------12*--|
A----------------------------------------10---12---------13---15---------|
E------------------------------------------------------------------------|

she bends a little (not even a half step) the last note *

outro chords

e-----------------------------------|
B-----------------------------------|
G-----------------------------------|
D-----5---5---5---5---5---5---5---5-|
A----5---5---5---5---5---5---5---5--|
E---6---6---6---6---6---6---6---6---|

e-----------------------------------|
B-----------------------------------|
G-----------------------------------|
D-----7---7---7---7---7---7---7---7-|
A----7---7---7---7---7---7---7---7--|
E---8---8---8---8---8---8---8---8---|

or, higher

e-----3---3---3---3---3---3---3---3-|
B----3---3---3---3---3---3---3---3--|
G---3---3---3---3---3---3---3---3---|
D-----------------------------------|
A-----------------------------------|
E-----------------------------------|

e-----5---5---5---5---5---5---5---5-|
B----5---5---5---5---5---5---5---5--|
G---5---5---5---5---5---5---5---5---|
D-----------------------------------|
A-----------------------------------|
E-----------------------------------|

live outro riff (sounding 1 octave higher)

e-------------------------------------------------------------------|
B-----------------------3---------------------5---5-6---8-6-5-------|
G-------------2---2-5-2*--5-3-2---------5---5---5-----5*------7-5---|
D-------3---3---3---------------2/5---5---5-----------------------8-|
A-----5---5-------------------------7-------------------------------|
E---6---------------------------------------------------------------|

(sometimes she doesn't seem to play the notes marked with *)
Tap to rate this tab
 
# A B C D E F G H I J K L M N O P Q R S T U V W X Y Z