Song name
# A B C D E F G H I J K L M N O P Q R S T U V W X Y Z

St Vincent - Surgeon Acoustic chords

Highlighted       Show chord diagrams

                      St. Vincent - Surgeon (Acoustic) chords/tab
                               Tabbed by Paranoid Amnesia



Tuning: 1 whole step down

CHORDS USED:


   Gmaj7 |   Fmaj7| Cmaj7(a) | Cmaj7(B) | A#/F
d|--4----|----2---|----2-----|----2-----|---3----|
A|--2----|----0---|----2-----|----2-----|---5----|
F|--2----|----0---|----2-----|----4-----|---5----|  Annie switches back and
C|--2----|----0---|----0-----|----0-----|---5----|  forth between Cmaj7(a)
G|--0----|----X---|----------|----------|--------|  and (b) every time she
D|-------|----3---|----------|----------|--------| gets to that part in the
                                                progression except for during
    Am  |   Am7  |   Am6  | G#maj7 | F#maj7   the "aaaaaahh"intro thing.
|---2---|----5---|----4---|--------|--------|
|---3---|----3---|----3---|----6---|---4----|
|---4---|----2---|----2---|----7---|---5----|
|---4---|----4---|----4---|----7---|---5----|
|---2---|----2---|----2---|--------|--------|
|-------|--------|--------|----6---|---4----|

   D#      A#m     G#
|---1---|---8---|---6---|
|---1---|---8---|---6---|
|---2---|---8---|---7---|
|---3---|---10--|---8---|
|---3---|---10--|---8---|
|---1---|---8---|---6---|

    Gmaj7       Fmaj7       Cmaj7(a)        A#/F
Aaaaaaaahhh aaaaaaaahhh  aaaaaah aaaaah aaaaaaaah aaah

Gmaj7                  Fmaj7           Cmaj7
I spent the summer on my back and over attack Stay in just to get along

 Gmaj7                   Fmaj7
 turn off the TV, wait in bed

         Cmaj7
Blue and red somethin' to get along


Am               Am7               Am6
Best finest surgeon come cut me open

Am               Am7               Am6
Best finest surgeon come cut me open

Gmaj7      Fmaj7
Ahhhhhhhh ahhhhhhh

Gmaj7                        Fmaj7         Cmaj7
Dress the undressing for the wall if mother calls

            Cmaj7
She knows well we don't get along

 Gmaj7
 I tell the mailman,

           Fmaj7                      Cmaj7
"Never you mind I'll sift through the piles" for him to just get along


Am              Am7              Am6
Best finest surgeon come cut me open

Am               Am7               Am6
Best finest surgeon come cut me open

 G#maj7       F#maj7
  Ooooooooooooooooooh

 G#maj7       F#maj7
  Ooooooooooooooooooh

 G#maj7   F#maj7  D#
  Ooooooooooooooooooh

               A#m
Best finest surgeon come cut me open

               A#m
Best finest surgeon come cut me open

A#m             G#   F
Best finest surgeon come cut me open

A#m             G#   F
Best finest surgeon come cut me open




This probably isn't 100% accurate, but it's as close as I can get it.
Also, this is my first tab! Woohoo!
Tap to rate this tab
# A B C D E F G H I J K L M N O P Q R S T U V W X Y Z