Guitaretab - guitar tabs
Song name
# A B C D E F G H I J K L M N O P Q R S T U V W X Y Z

Stabilo Boss - Any Other Girl tab

-------------------------------------------------------------------------------
			     Stabilo (Boss) - Any Other Girl
-------------------------------------------------------------------------------
Tabbed by: Schnopps
Email: xtcdavid@yahoo.com

Tuning: Standard
[ Tab from: http://www.guitaretab.com/s/stabilo-boss/134741.html ]
e|-------------------------------------------------------|
B|-------4s3----10--------11--------------------8--------|
G|-------3------11--------12---------10---------8--------|
D|------------------------12---------10---------8--------|
A|---3-------9------9-10------10---8-----8---6-----------|
E|-------------------------------------------------------|

e|-------------------------------------------------------|
B|---------10------------------11------------------------|
G|---------11---------------12---------------10----------|
D|---------10------------12---------------10----10-------|
A|--12--12-----12----10--------------8-------------------|
E|-------------------------------------------------------|


| s = slide down


Amazing song, this ones for the Stabilo fans out there but especially for you salty!
Related for Any Other Girl tab
Any Other Girl chords by Stabilo Boss