Guitaretab - guitar tabs
Song name
# A B C D E F G H I J K L M N O P Q R S T U V W X Y Z

Staind - Tangled Up In You tab

-------------------------------------------------------------------------------
			     Tangled Up In You - Staind
-------------------------------------------------------------------------------
Tabbed by: Guitarfrk79
Email: Guitarfrk79@comcast.net
Tuning: Drop Db

Here are the tabs to Tangled Up In You by Staind. This is my first tab, but Iím pretty 
this is all correct. By the way, this tab is played in drop Db, so tune to Eb then tune 
low Eb to Db (like drop D tuning), for you who donít know how to do it.

Tuning:

Intro/Verse (6x)
eb|---------------------------------------------------------------------|
Bb|----------------------0-------0--------------------------------------|
Gb|---------------------------------------------------------------------|
Db|----2-4-----2-4-----7-------7----------------------------------------|
Ab|--0-------0-------5-------5------------------------------------------|
Db|0-------0-------5-------5--------------------------------------------|

Chorus (2x)
eb|---------------------------------------------------------------------|
Bb|--------------------------0-------0----------------------------------|
Gb|---------------------------------------------------------------------|
Db|----11-12-----11-12-----7-------7------------------------------------|
Ab|--9---------9---------5-------5--------------------------------------|
Db|9---------9---------5-------5----------------------------------------|

Verse(4x)
eb|---------------------------------------------------------------------|
Bb|----------------------0-------0--------------------------------------|
Gb|---------------------------------------------------------------------|
Db|----2-4-----2-4-----7-------7----------------------------------------|
Ab|--0-------0-------5-------5------------------------------------------|
Db|0-------0-------5-------5--------------------------------------------|

Chorus (2x)
eb|---------------------------------------------------------------------|
Bb|--------------------------0-------0----------------------------------|
Gb|---------------------------------------------------------------------|
Db|----11-12-----11-12-----7-------7------------------------------------|
Ab|--9---------9---------5-------5--------------------------------------|
Db|9---------9---------5-------5----------------------------------------|
[ Tab from: http://www.guitaretab.com/s/staind/113517.html ]
Bridge
eb|---------------------------------------------------------------------|
Bb|----------------0----------------------------------0-----------------|
Gb|---------------------------------------------------------------------|
Db|----11-12-----7-------2-4-----9-11-----11-12-----7-------2-4---------|
Ab|--9---------5-------0-------7--------9---------5-------0-------------|
Db|9---------5-------0-------7--------9---------5-------0---------------|

eb|---------------------------------------------------------------------|
Bb|---------------------------------------------------------------------|
Gb|---------------------------------------------------------------------|
Db|-----9-11-----9-11~--------------------------------------------------|
Ab|--7---------7--------------------------------------------------------|
Db|7---------7----------------------------------------------------------|

Chorus (2x)
eb|---------------------------------------------------------------------|
Bb|--------------------------0-------0----------------------------------|
Gb|---------------------------------------------------------------------|
Db|----11-12-----11-12-----7-------7------------------------------------|
Ab|--9---------9---------5-------5--------------------------------------|
Db|9---------9---------5-------5----------------------------------------|

Outro(2x)
eb|---------------------------------------------------------------------|
Bb|----------------------0-------0ó----------------------0------0-------|
Gb|---------------------------------------------------------------------|
Db|----2-4-----2-4-----7-------7-------2-4-----2-4-----7------7---------|
Ab|--0-------0-------5-------5-------0-------0-------5------5-----------|
Db|0-------0-------5-------5-------0-------0-------5------5-------------|

eb|---------------------------------------------------------------------|
Bb|----------3~~~~------------------------------------------------------|
Gb|--------2------------------------------------------------------------|
Db|----2-4--------------------------------------------------------------|
Ab|--0------------------------------------------------------------------|
Db|0--------------------------------------------------------------------|



| /  slide up
| \  slide down
| h  hammer-on
| p  pull-off
| ~  vibrato
| +  harmonic
| x  Mute note
===============================================================================
Related for Tangled Up In You tab