Song name
# A B C D E F G H I J K L M N O P Q R S T U V W X Y Z

Staind - Reality tab

Band: Staind
Song Name: Reality
Tab by: cisco21c

==From Low to High==

Elec. Gtrs. 1 & 3 tuned:| Elec. Gtr. 2 tuned down 1/2 step:
			| 
Ab Eb Bb Db Gb Db	| Eb Ab Db Gb Bb Eb


*Moderately = 120*



#INTRO
#Elec. Gtr. 1 (clean-tone)
					      P.M. ------------| 
Db|---------------------------------3---|-----------------------------|
Gb|---------------------------------0---|--0---0----------------------|
Db|------4-------5------4-----------4---|--4---4----------4-----------|
Bb|--0-------0--------------0---0-0h3---|--3---3-------3-----0--------|
Eb|--0-------0--------------------------|-----------5-----------------|
Ab|-------------------------------------|-----------------------------|

Db|---------------------------------|---------------------------------|
Gb|---------------------------------|---------------------------------|
Db|--4h5--4----------4--5-----------|---------------------------------|
Bb|----3--3--5---0---3--3---0---7---|--7----7----7----7---------------|
Eb|----3--3--3---0---3--3---0---5---|--5----5----5----5---------------|
Ab|-----------------------------5---|--5----5----5----5---------------|

#VERSE
#Elec. Gtr. 1 (clean-tone)
					      P.M. ------------| 
Db|---------------------------------3---|-----------------------------|
Gb|---------------------------------0---|--0---0----------------------|
Db|------4-------5------4-----------4---|--4---4----------4-----------|
Bb|--0-------0--------------0---0-0h3---|--3---3-------3-----0--------|
Eb|--0-------0--------------------------|-----------5-----------------|
Ab|-------------------------------------|-----------------------------|
  | Elec Gtr. 2* Harm. w/effect					      |
Db|-------------------------------------------------------------------|
Gb|-------------------------------------------------------------------|
Db|-+5~---------------------------------------------------------------|
Bb|-------------------------------------------------------------------|
Eb|-------------------------------------------------------------------|
Ab|-------------------------------------------------------------------| \
									 |Repeat 4 times.
Db|---------------------------------|---------------------------------| /
Gb|---------------------------------|---------------------------------|
Db|--4h5--4----------4--5-----------|---------------------------------|
Bb|----3--3--5---0---3--3---0---7---|--7----7----7----7---------------|
Eb|----3--3--3---0---3--3---0---5---|--5----5----5----5---------------|
Ab|-----------------------------5---|--5----5----5----5---------------|
  | Elec. Gtr. 2* Harm. w/effects				      |
Eb|-------------------------------------------------------------------|
Bb|-------------------------------------------------------------------|
Gb|-------------------------------------------------------------------|
Db|-+5~--------+5~---------+3~----------------------------------------|
Ab|-------------------------------------------------------------------|
Eb|-------------------------------------------------------------------|

#CHORUS
#Elec. Gtr. 3 (w/dist.)

Db|------------------------------|-----------------------------|
Gb|------------------------------|--0--------------------------|
Db|--12-----12---12-------14-----|--0----0---0---0----0--------|
Bb|--8------8----8------------0--|--10---10--10--10---10-------|
Eb|--8------8----8----0---12--0--|--10---10--10--10---10--0----|
Ab|------------------------------|--10---10--10--10---10-------|
  | Elec. Gtr. 2*					       |
Eb|--10-----10---12-------12-----|--5--------5---7----7--------|
Bb|------------------------------|-----------------------------|
Gb|--7------7----9--------9------|--2--------2---4----4--------|
Db|------------------------------|-----------------------------|
Ab|------------------------------|-----------------------------|
Eb|------------------------------|-----------------------------| \
								  |Repeat 3 times.
Db|--------------------------|---------------------------------| /
Gb|--------------------------|---------------------------------|
Db|--------------------------|--9-----------9---9---9---9------|
Bb|--8----8---8------8-------|--7-----------7---7---7---7------|
Eb|--8----8---8------8-------|--7-----------7---7---7---7------|
Ab|--7----7---7------7---10--|---------------------------------|
  | Elec. Gtr 2*					       |
Eb|--8------8/10-------------|---------------------------------|
Bb|----------------------8---|--7---7-------8-------8--10--10--|
Gb|--5------5/7--------------|----------------------5--7---7---|
Db|----------------------5---|--4---4-------5------------------|
Ab|--------------------------|---------------------------------|
Eb|--------------------------|---------------------------------|

#BRIDGE/OUTRO
#Elec. Gtr. 3 (w/dist.)

Db|--------------------------------|---------------------------|
Gb|--0----------0----0-------------|----------------0----------|
Db|--14---------14----------14-----|--------------------12-----|
Bb|--12---------12--------------0--|--8----------8----------0--|
Eb|--0-----------------------------|--8----------8-------------|
Ab|--14----------------------------|---------------------------| \
								  |Repeat 3 times.
Db|--------------------------------|---------------------------| /
Gb|------------------0-------------|---------------------------|
Db|-------------------------0------|--5---5----5----5---5------|
Bb|--5----------5---------------0--|--7---7----7----7---7---0--|
Eb|--5----------5------------------|--7---7----7----7---7---0--|
Ab|--------------------------------|---------------------------|

#End with this Riff.

Db|---------------------------|--0~----------------------------|
Gb|---------------------------|--0~----------------------------|
Db|--5---5----5----5---5------|--14~---------------------------|
Bb|--7---7----7----7---7---0--|--12~---------------------------|
Eb|--7---7----7----7---7---0--|--0~----------------------------|
Ab|---------------------------|--14~---------------------------|


| /  slide up
| \  slide down
| h  hammer-on
| p  pull-off
| ~  vibrato
| +  harmonic
===============================================================================

Now I hope this helps everyone. :)
Tap to rate this tab
# A B C D E F G H I J K L M N O P Q R S T U V W X Y Z