Song name
# A B C D E F G H I J K L M N O P Q R S T U V W X Y Z

Staind - Falling tab

-------------------------------------------------------------------------------
			     Falling - Staind
-------------------------------------------------------------------------------
Tabbed by:Omar aka Staind915
Email:cowboyz915@yahoo.com

Tuning: 

 Guitar I: Regular Electric w/ Distortion down 1/2 step Db Ab Db Gb Bb Eb
                                 ( b = flat)
 Guitar II: Baritone w/ Distortion  Gb Db ab Db Ab Db
                                  (yes i know its low)


 Ok sorry to the people who wanted to play this song earilier and gave it
such a low rating. For one, i put the intro and verses on the wrong strings.
second, i checked back on the chorus, it was decent, but i was missing other
parts to it too. but now i can finally finsih this, and you can finally rock
out on a totaly bad ass song.



Intro:
     
 Baritone:

(tremolo picking)
e|------00000000000000000000000000000000000000000000000000000000000000000----|
B|---------------------------------------------------------------------------|
G|---------------------------------------------------------------------------|
D|---------------------------------------------------------------------------|
A|---------------------------------------------------------------------------|
E|---------------------------------------------------------------------------|


Baritone Guitar

   REPEAT BELOW 8x
Gb|--------------------------------------------------------------------------|
Db|--------------------------------------------------------------------------|
Ab|----------------------------6-5-666-5--6-5--0-----------------------------|
Db|---10\12-------10\12--------6-5-666-5--6-5--0-----------------------------|
Ab|---10\12--0-0--10\12--0-0-------------------------------------------------|
Db|--------------------------------------------------------------------------|
  
REPEAT ABOVE 8x


Verse

   Baritone Guitar 

Gb|--------------------------------------------------------------------------|
Db|---------------------------------------------------------------------0----|
Ab|-------------------------------------------------------------------0------|
Db|---3/5-------3p0--------1p0--------3p0-----repeat 3x then...-----3--------|
Ab|-------0--0------0--0--------0--0------00---------------------------------|
Db|--------------------------------------------------------------------------|

Gb|--------------------------------------------------------------------------|
Db|---5p0--------------------------------------------------------------------|
Ab|--------------5p0---------8\7---------------------------------------------|
Db|-------------------------------------10\8---------------------------------|
Ab|--------0--0------0--0---------0--0------------0---0--0--0----------------|
Db|--------------------------------------------------------------------------|

 ELECTRIC:

       (JUST DO THIS THOUGHOUT THE Verse)
eb|--------------------------------------------------------------------------|
Bb|--------------------------------------------------------------------------|
Gb|--------------------------------------------------------------------------|
Db|--------------------------------------------------------------------------|
Ab|--------------------------------------------------------------------------|
Db|---0---0---0---0---0---0---0---0---0---0---0---0---0---0---0---0---0---0--|
    pm......................................................................


Post-Verse X2

 BARITONE GUITAR

Gb|--------------------------------------------------------------------------|
Db|---5p0--------------------------------------------------------------------|
Ab|--------------5p0---------8\7-----------7---------------------------------|
Db|--------------------------------8-----------------------------------------|
Ab|--------0--0------0--0--------------0---------0-------0--0--0--0----------|
Db|--------------------------------------------------------------------------|

Pre-Chorus:



 BARITONE GUITAR

Gb|--------------------------------------------------------------------------|
Db|---5p0--------------------------------------------------------------------|
Ab|--------------5p0---------8\7-----------0---------------------------------|
Db|--------------------------------8-----------------------------------------|
Ab|--------0--0------0--0--------------0-------------------------------------|
Db|--------------------------------------------------------------------------|

CHORUS:


Baritone Guitar

   REPEAT BELOW 8x
e|---------------------------------------------------------------------------|
B|---------------------------------------------------------------------------|
G|---------------------------------------------------------------------------|
D|----------------------------6-5-666-5--6-5--0------------------------------|
A|---10\12-------10\12--------6-5-666-5--6-5--0------------------------------|
E|---10\12--0-0--10\12--0-0--------------------------------------------------|
   REPEAT ABOVE 8x


 Chorus:

 BARITONE GUITAR: 

Gb|--------------------------------------------------------------------------|
Db|--13---------13-----13-----12---5-----10----10----10-----3------3---------|
Ab|--------------------------------------------------------------------------|
Db|--13---------13-----13-----12---5-----10----10----10-----3------3---------|
Ab|--------------------------------------------------------------------------|
Db|--------------------------------------------------------------------------|

Gb|--------------------------------------------------------------------------|
Db|--12---------12-----5--------5-----5----12----12-----7------7----7-----5r-|
Ab|--------------------------------------------------------------------------|
Db|--12---------12-----5--------5-----5----12----12-----7------7----7-----5r-|
Ab|--------------------------------------------------------------------------|
Db|--------------------------------------------------------------------------|

 Electric w/ Distortion (in sync with BARITONE)
                                                 
eb|--------------------------------------------------------------------------|
Bb|--------------------------------------------------------------------------|
Gb|--8---8-8--8---8-8-8---8-8-8-8-8-8-8---5---5---5-5--5---5-5-5--5-5-5-5-5--|
Db|--8---8-8--8---8-8-8---8-8-8-8-8-8-8---5---5---5-5--5---5-5-5--5-5-5-5-5--|
Ab|--8---8-8--8---8-8-8---8-8-8-8-8-8-8---5---5---5-5--5---5-5-5--5-5-5-5-5--|
Db|--------------------------------------------------------------------------|

eb|--------------------------------------------------------------------------|
Bb|--------------------------------------------------------------------------|
Gb|--0---0-0--0---0-0-0---0-0-0-0-0-0-0---7---7---7-7--7---7-7-7--7-7-7-7-7--|
Db|--0---0-0--0---0-0-0---0-0-0-0-0-0-0---7---7---7-7--7---7-7-7--7-7-7-7-7--|
Ab|--0---0-0--0---0-0-0---0-0-0-0-0-0-0---7---7---7-7--7---7-7-7--7-7-7-7-7--|
Db|--------------------------------------------------------------------------|


Song Order:

Intro
Verse
Post Verse
Pre-Chorus
Chorus
Verse
Pre-Chorus
Chorus
Bridge( COMING SOON )
Chorus
Intro


I'll be back with the bridge as soon as i figure it out! 


| /  slide up
| \  slide down
| h  hammer-on
| p  pull-off
| ~  vibrato
| +  harmonic
| x  Mute note
| r  ring out
===============================================================================
Tap to rate this tab
# A B C D E F G H I J K L M N O P Q R S T U V W X Y Z