Song name
# A B C D E F G H I J K L M N O P Q R S T U V W X Y Z

Staind - The Corner tab

Half step down - Eb Ab Db Gb Bb eb

Intro/Verse

----------0-------------------0---------------------------------------------------------|
-------3-----3------------3-----3---------------1--3--1---------------1--3--1-----------|
----2-----------2------2-----------2----------------------------------------------------|
-0------------------0-----------------------3--------------3------3--------------3------|
------------------------------------------1---------------------1-----------------------|
----------------------------------------------------------------------------------------|

Chorus

----------1--3--1------------1--3--1------------0-----0-----------0--------------|
-------1-----------1------1-----------1------------3-----------------3--2--------|
---------------------------------------------0-----------0-----0-----------------|
-3--------------------3-------------------2-----------------2--------------2-----|
---------------------------------------------------------------------------------|
---------------------------------------------------------------------------------|


-----------1-----------------1---------------------------------------------------|
--------3-----3-----------3-----3------------1--3--1-----------1--3--------------|
-----2-----------2-----2-----------2---------------------------------------------|
--0-----------------0---------------------3-----------3-----3--------------------|
---------------------------------------1-----------------1-----------------------|
---------------------------------------------------------------------------------|


Verse

Chorus


Bridge

-----------1-----------------1---------------0-----0-----------0--------------|
--------3-----3-----------3-----3---------------3-----------------3--2--------|
-----2-----------2-----2-----------2------0-----------0-----0-----------------|
--0-----------------0------------------2-----------------2--------------2-----|
------------------------------------------------------------------------------|
------------------------------------------------------------------------------|


----------1--3--1------------1--3--1------------------------------------------------|
-------1-----------1------1-----------1---------1--3--1-----------1--3--------------|
----2-------------------------------------------------------------------------------|
-3--------------------3----------------------3-----------3-----3--------------------|
------------------------------------------1-----------------1-----------------------|
------------------------------------------------------------------------------------|

Chorus

Verse pattern to end.
Tap to rate this tab
 
# A B C D E F G H I J K L M N O P Q R S T U V W X Y Z