Song name
# A B C D E F G H I J K L M N O P Q R S T U V W X Y Z

Staind - For You tab

Band - Staind
Song - For You

Gtr I, II, III (Db Ab Db Gb Bb Eb) - 'Michael Mushok - Barritone gtr arr. for gtr. w/dist'

Intro
    Q=88
   4/4
    Gtr I
        PM|     PM    PM--|     PM|       PM|     PM    PM--|
    S S S S S S S S S S S S S S S S   S S S S S S S S S S S S S S S S
||----------------------------------|----------------------------------||
||o---------------------------------|---------------------------------o||
||----------------------------------|----------------------------------||
||----------------------------------|----------------------------------||
||o-2h4-4-4-2h4-4-2h4-4-4-4-2h4-4-4-|-2h4-4-4-2h4-4-2h4-4-4-4-5p4---2-o||
||--2h4-4-4-2h4-4-2h4-4-4-4-2h4-4-4-|-2h4-4-4-2h4-4-2h4-4-4-4-5p4-x-2--||
 |-Rhy Fig 1                                             end Rhy Fig 1-|

   Verses
||--
||o-
||-- Rhy Fig 1 x4
||--
||o-
||--



 Chorus
  $
  Gtr II
   Q.    E +Q   Q       Q.   E +Q.    +E
|-------------------|----------------------|
|-/7-----5-(5)------|-/10----9-(9)----(9)\-|
|---------------6\--|----------------------|
|-------------------|----------------------|
|-------------------|----------------------|
|-------------------|----------------------|
|-Rhy Fig 3
|
| Gtr I
|  Q   Q    Q   Q       Q.   E +Q   Q
|-------------------|----------------------|
|-------------------|----------------------|
|---------------6---|----------------------|
|--6---6----7---7---|--------4-(4)--4------|
|--4---4----5---5---|---7----2-(2)--4------|
|--4---4----4---4---|---7----2-(2)--2------|
|-Rhy Fig 2

   Q.    E +Q   Q       Q.   E +Q.    +E
|-------------------|----------------------|
|-/7-----5-(5)------|-/10----9-(9)----(9)\-|
|---------------6\--|----------------------|
|-------------------|----------------------|
|-------------------|----------------------|
|-------------------|----------------------|
|                            end Rhy Fig 3-|
|
|  Q   Q    Q   Q       Q.   E +Q   Q
|-------------------|----------------------|
|-------------------|----------------------|
|---------------6---|----------------------|
|--6---6----7---7---|----------------------|
|--4---4----5---5---|---7----7-(7)--7------|
|--4---4----4---4---|---7----6-(6)--6------|


w/Rhy Fig 3
   Q   Q    Q   Q       Q.   E +Q   Q
|-------------------|----------------------|
|-------------------|----------------------|
|---------------6---|----------------------|
|--6---6----7---7---|--------4-(4)--4------|
|--4---4----5---5---|---7----2-(2)--4------|
|--4---4----4---4---|---7----2-(2)--2------|


                     1.
             To Coda
   Q   Q    Q   Q       Q.   E +H
|-------------------|----------------------||
|-------------------|---------------------o||
|---------------6---|----------------------||
|--6---6----7---7---|----------------------||
|--4---4----5---5---|---7----7-(7)--------o||
|--4---4----4---4---|---7----6-(6)---------||
                             end Rhy Fig 2-|

                  Bridge
  2.
                Gtr III
                   PM-------------------------------
  Q.   E +H        S S S S S S S S S S S S S S S S
|---------------||---------------------------------|
|---------------||---------------------------------|
|---------------||---------------------------------|
|---------------||---------------------------------|
|-7----7-(7)----||---------------------------------|
|-7----6-(6)----||-4-x-x-4-x-x-4-x-x-4-x-x-4-x-4-x-|
                 |-Rhy Fig 4         end Rhy Fig 4-|

Rhy Fig 4 x5


w/Rhy Fig 4 x4
  Gtr I
  E   E   Q       H                 E   E   Q       H
|---------------------------------|---------------------------------|
|---------------------------------|---------------------------------|
|---------------------------------|---------------------------------|
|---------------------------------|---------------------------------|
|-4-------------------------------|-4-------------------------------|
|-4-------------------------------|-4-------------------------------|


  E   E   Q       H                 E   E   Q       H
|---------------------------------|-----------------------------------|
|---------------------------------|-----------------------------------|
|---------------------------------|-----------------------------------|
|---------------------------------|-----------------------------------|
|-4---4---------------------------|-4---4-----------------------------|
|-4---4---------------------------|-4---4-----------------------------|



  PM-----------------------------------------------
  E S S +S  S E S E. E E   E S S +S  S E S E. E E
|------------------------|------------------------|
|------------------------|------------------------|
|------------------------|------------------------|
|------------------------|------------------------|
|-4-2-4-(4)-2-4-x-2--4-2-|-4-2-4-(4)-2-4-x-2--4-2-|
|-4-2-4-(4)-2-4-x-2--4-2-|-4-2-4-(4)-2-4-x-2--4-2-|


                                      D.S. al Coda
 -----------------------------------------------|
  E S S +S  S E S E. E E   E S S +S  S E S E. E E
|------------------------|-------------------------||
|------------------------|-------------------------||
|------------------------|-------------------------||
|------------------------|-------------------------||
|-4-2-4-(4)-2-4-x-2--4-2-|-4-2-4-(4)-2-4-2-2--2-2--||
|-4-2-4-(4)-2-4-x-2--4-2-|-4-2-4-(4)-2-4-2-2--2-2--||


                  Out-Chorus
  &
                Gtr II
  W
|---------------||
|---------------||
|---------------|| w/Rhy Fig 3
|---------------||
|---------------||
|---------------||
|
| Gtr I
| Q.   E +H
|---------------||
|---------------||
|---------------|| w/Rhy Fig 2
|---------------||
|-7----7-(7)----||
|-7----6-(6)----||



Outro
  Gtr I
      PM|     PM    PM--|     PM|       PM|     PM    PM--|
  S S S S S S S S S S S S S S S S   S S S S S S S S S S S S S S S S
|---------------------------------|---------------------------------|
|---------------------------------|---------------------------------|
|---------------------------------|---------------------------------|
|---------------------------------|---------------------------------|
|-2h4-4-4-2h4-4-2h4-4-4-4-2h4-4-4-|-2h4-4-4-2h4-4-2h4-4-4-4-5p4---2-|
|-2h4-4-4-2h4-4-2h4-4-4-4-2h4-4-4-|-2h4-4-4-2h4-4-2h4-4-4-4-5p4-x-2-|


      PM|     PM    PM--|     PM|       PM|
  S S S S S S S S S S S S S S S S   S S S S S S S S H
|---------------------------------|----------------------*|
|---------------------------------|----------------------*|
|---------------------------------|----------------------*|
|---------------------------------|----------------------*|
|-2h4-4-4-2h4-4-2h4-4-4-4-2h4-4-4-|-2h4-4-4-2h4---2------*|
|-2h4-4-4-2h4-4-2h4-4-4-4-2h4-4-4-|-2h4-4-4-2h4---2------*|
Tap to rate this tab
 
# A B C D E F G H I J K L M N O P Q R S T U V W X Y Z