Song name
# A B C D E F G H I J K L M N O P Q R S T U V W X Y Z

Staind - Devil tab

============================================================================
                             Devil - Staind
============================================================================
Tabbed by: UpressPoet009
Email: unpresspoet009@yahoo.com

Tuning: 1/2 step down
E -> Eb
B -> Bb
G -> Gb
D -> Db
A -> Ab
E -> Eb


Intro/Verse:
eb|--0---0----0---0-----0---0-----0---0-----0---0----0---0-----0--------|
Bb|--0-----0--0-----0---0-----0---0-----0---0-----0--0-----0---0--------|
Gb|--7--------14--------12--------9---------7--------5---------4--5--4--|
Db|--7--------12--------9---------9---------7--------5---------5--------|
Ab|--0--------0---------0---------0---------0--------0---------0--------|
Eb|---------------------------------------------------------------------|


eb|--0----0-----0----0-----0----0-----0----0-----|
Bb|--0-----0----0-----0----0-----0----0-------0--|
Gb|--2------2---2------2---2------2---2----------|
Db|--2----------2----------2----------2----------|
Ab|--0----------0----------0----------0----------|
Eb|----------------------------------------------|




Chorus:
eb|--1--------0----|
Bb|--1--------1----|
Gb|--2--------2----|
Db|--3--------2----|
Ab|--3--------0----|
Eb|--1-------------|
Tap to rate this tab
# A B C D E F G H I J K L M N O P Q R S T U V W X Y Z