Song name
# A B C D E F G H I J K L M N O P Q R S T U V W X Y Z

Staind - Outside tab

Staind - Outside


**Palm Mute whole song except lead** 
** a “/” means to slide up 2 next note**
**“H” means to hammer on the  note**
** “PO” means pull off of the string   **

Intro and Verses

E-----x-------- x--------x----x----x -----|------- -x-------- x--------x----x----x ----- x--x--x -----|-----x--------x--------x----x----x------- |
B-----6--------6--------6----6----6------|-------- 4-------- 4--------4----4----4 ----- 4--4--4 -----|-----x--------x--------x----x----x------- |
G-----8--------8--------8----8----8------|-------- 6-------- 6--------6----6----6 ----- 6--6--6 -----|-----x--------x--------x----x----x------- |
D-----8--------8--------8----8----8------|-------- 6-------- 6--------6----6----6 ----- 6--6--6 -----|-----4--------4--------4----4----4------- |
A-----6--------6--------6----6----6------|-------- 4-------- 4--------4----4----4 ----- 4--4--4 -----|-----4--------4--------4----4----4------- |
E -----6--------6--------6----6----6------|-------- 4-------- 4--------4----4----4 -----4--4--4 ------|----2--------2--------2----2----2---/----|

E-- x-------- x--------x----x----x ----- x--x--x --|-------------------------------------------------------------------------------||
B-- x-------- x--------x----x----x ----- x--x--x --|-------------------------------------------------------------------------------||
G-- x-------- x--------5----5----5 ----- 5--5--x --|-----------(Repeat 6 Times **4 per verse, 2 for intro**)------------  ||
D-- 6-------- 6--------6----6----6 ----- 6--6--6 --|-------------------------------------------------------------------------------||
A-- 6-------- 6--------6----6----6 ----- 6--6--6 --|-------------------------------------------------------------------------------||
E -- 4-------- 4--------4----4----4 ----- 4--4--4 --|------------------------------------------------------------------------------ ||

Lead Solo

E-------------------------------------------------------------------------------------------------------------------------------------------||
B---11--11--12--11---------------------------11-------------------------------------------11------------------------------------------||
G-----------------------------13-------13-----------13-------13--------11------13--11-------11--11--11--H13-- PO11---------   ||
D------------------------13-------13------13------------13--------11-------11---------------------------------------------------------||
A-------------------------------------------------------------------------------------------------------------------------------------------||
E-------------------------------------------------------------------------------------------------------------------------------------------||


1st Chorus

E---------------------------------------------------------------------------------------------------------------------------------------------||
B---------------------------------------------------------------------------------------------------------------------------------------------||
G--3---------3---------3----3----3--------6----6----3----4------6---------6---------6----6----6-----3-----3---4----3---1------------||
D--1---------1---------1----1----1--------4-----------------------6---------6---------6----6----6-----1------------------------4-------||                      A--------------------------------------------------------------------4---------4---------4----4----4---------------------------------------||         E---------------------------------------------------------------------------------------------------------------------------------------------||

(Repeat 2x, then :)



E-------------------------------------------------------------------------------------||
B---3--------3----x----3------------------------------------------------------------||
G---1--------1----x----1---------------------------------------6---3---4---3------||
D------------------------------6--------6----x----6---------------------------------||
A------------------------------4--------4----x----4-------4-------------------------||
E-----------------------------------------------------------2-------------------------||


2nd Chorus

E---------------------------------------------------------------------------------------------------------------------------------------------||
B---------------------------------------------------------------------------------------------------------------------------------------------||
G--3---------3---------3----3----3--------6----6----3----4------6---------6---------6----6----6-----3-----3---4----3---1------------||
D--1---------1---------1----1----1--------4-----------------------6---------6---------6----6----6-----1------------------------4-------||                      A--------------------------------------------------------------------4---------4---------4----4----4---------------------------------------||         E---------------------------------------------------------------------------------------------------------------------------------------------||

(Repeat 2x, then :)

E---------------------------------------------------------------------------------------------------------||
B---3--------3----x----3--------------------------------------------------------------------------------||
G---1--------1----x----1---------------------------------------6---3---4---3-----3---4---3---1------||
D------------------------------6--------6----x----6--------------------------------------------------4-||
A------------------------------4--------4----x----4-------4--------------------------------------------||
E-----------------------------------------------------------2--------------------------------------------||

(repeat 4x, then play verse chords until end)
Tap to rate this tab
# A B C D E F G H I J K L M N O P Q R S T U V W X Y Z