Song name
# A B C D E F G H I J K L M N O P Q R S T U V W X Y Z

Staind - Open Your Eyes tab

STAIND - OPEN YOUR EYES

Tuning: Drop-Db

Intro 1/Verse (slight dist. and flanger)
-----------------|------------------|
-----------------|------------------|
-----------------|------------------|
-12-12-11-11-9-0-|-12-12-11-11-11-0-|
--9--9--9--9-9-0-|--9--9--9--9--9-0-|
--9--9--9--9-9-0-|--9--9--9--9--9-0-|

-----------------|----------|
-----------------|----------|
-----------------|----------|
-12-12-11-11-9-0-|-12-12-11-|
--9--9--9--9-9-0-|--9--9--9-|
--9--9--9--9-9-0-|--9--9--9-|

Intro 2
-------------------------|--------------------------------|
-------------------------|--------------------------------|
---------------------<9>-|---------------------<9>-<5>----|
-------------------------|----------------------------<9>-|
-7h9---12p9---7---9-9----|-7h9---12p9---7---9-9-----------|
-7h9---12p9---7---9-9----|-7h9---12p9---7---9-9-----------|

---------(repeat)--------|---------------------------|
-------------------------|---------------------------|
-------------------------|---------------------------|
-------------------------|---------------------------|
-------------------------|-7h9---12p9---7---9-9-10-9-|
-------------------------|-7h9---12p9---7---9-9-10-9-|

repeat those first three measures

-------------------------|
-------------------------|
-------------------------|
-------------------------|
-7h9---12p9---7---9-9-12-|
-7h9---12p9---7---9-9-12-|

Chorus
-------------|-----------------|
-------------|-----------------|
-------------|-----------------|
-5-5-7-7---2-|---2-12-12-12-12-|
-5-5-7-7---2-|---2-10-10-10-10-|
-5-5-7-7---2-|---2--9--9--9--9-|

-------------|-------------|
-------------|-------------|
-------------|-------------|
-5-5-7-7---2-|---2-4-4-4-4-|
-5-5-7-7---2-|---2-4-4-4-4-|
-5-5-7-7---2-|---2-4-4-4-4-|

Bridge
-----------|------------|-----------|------------|
-----------|------------|-----------|------------|
-----------|------------|-----------|------------|
-----------|-12-----12--|-----------|--------12--|
-9-9-10-9--|-10-9-10----|-9-9-10-9--|-10-9-10----|
-0-------0-|--0-------0-|-0-------0-|--0-------0-|

last Chorus
repeat first three measures
-------------|
-------------|
---4-----5---|
-2-4-2-3-5-3-|
-2-2-2-3-3-3-|
-2---2-3---3-|
Tap to rate this tab
 
# A B C D E F G H I J K L M N O P Q R S T U V W X Y Z