Song name
# A B C D E F G H I J K L M N O P Q R S T U V W X Y Z

Stan Walker - Black Box tab

-------------------------------------------------------------------------------
			     Black Box  Stan Walker
-------------------------------------------------------------------------------
Tabbed by:Lana_komota
Email:h_mauafu@hotmail.com

Tuning:EADGBE

e|------5--53------5--53-------5--53------3-2-3-2-0----|
B|----3--3-------3--3--------3--3-------3-----------3--|
G|-----------------------------------------------------|
D|-0---------------------------------------------------|
A|------------3-----------3----------------------------|
E|-----------------------------------3-----------------|


http://stanwalker.com.au/
Tap to rate this tab
# A B C D E F G H I J K L M N O P Q R S T U V W X Y Z