Guitaretab - guitar tabs
Song name
# A B C D E F G H I J K L M N O P Q R S T U V W X Y Z

Star Fucking Hipsters - Until Were Dead tab

--------------------------------------------------------------------------
                 UNTIL WE'RE DEAD - star fucking hipsters
--------------------------------------------------------------------------

Band: Star Fucking Hipsters
Album: Until We're Dead (Fat Wreck Chords, 2008)
Song: Until We're Dead

Tabbed by Kyle T.
Contact: pants_me@hotmail.com
Site: http://marriedtotherails.wordpress.com

Standard tuning (EADGbe)

Legend:

  .   - Palm mute                            o     - Repeat bar
  x   - Dead note                            o
  _   - Let ring                           _______
  %   - Rest                              |1,2...  - Endings for repeats
  /   - Slide up                             #     - Harmonic
  \   - Slide down                           Nx    - Number of repeats
  h   - Hammer on                            v     - Vibrato
  b   - bend                                 *     - Staccato
  r   - release                              n     - Bar number
 (x)  - Note tied over from previous bar     ^     - Pitch harmonic


Piano Intro:

e|----------------|----------------|----------------|-4--------------|
b|----------------|----------------|----------------|-5--------------|
G|-------%--------|-------%--------|-------%--------|-6--------------|
D|----------------|----------------|----------------|-6--------------|
A|----------------|----------------|----------------|-4--------------|
E|----------------|----------------|----------------|----------------|
 |                                                                   |
e|----------------|----------------|----------------|----------------|
b|----------------|----------------|----------------|----------------|
G|-------%--------|-------%--------|-------%--------|-------%--------|
D|----------------|----------------|----------------|----------------|
A|----------------|----------------|----------------|----------------|
E|----------------|----------------|----------------|----------------|


Intro/Verse:

e|----------------|----------------|----------------|----------------|
b|----------------|----------------|----------------|----------------|
G|o6-6-6-6--6-6-6-|-6-6-6-6--6-6-6-|----------------|----------------|
D|o6-6-6-6--6-6-6-|-6-6-6-6--6-6-6-|-6-6-6-6--6-6-6-|-6-6-6-6--6-6-6-|
A|-4-4-4-4--4-4-4-|-4-4-4-4--4-4-4-|-6-6-6-6--6-6-6-|-6-6-6-6--6-6-6-|
E|----------------|----------------|-4-4-4-4--4-4-4-|-4-4-4-4--4-4-4-|
 |                                                                   |
e|----------------|----------------|----------------|----------------|
b|-5-5-5-4--4-4-4-|-5-5-5-4--4-4-4-|-5-5-5-4--4-4-4-|-5-5-5-4--4-4-4-|
G|o6-6-6-6--6-6-6-|-6-6-6-6--6-6-6-|-6-6-6-6--6-6-6-|-6-6-6-6--6-6-6-|
D|o---------------|----------------|----------------|----------------|
A|----------------|----------------|----------------|----------------|
E|----------------|----------------|----------------|----------------|

                                                                    4x
e|----------------|----------------|----------------|----------------|
b|----------------|----------------|----------------|----------------|
G|----------------|----------------|----------------|---------------o|
D|-7-7-7-7--7-7-7-|-7-7-7-7--7-7-7-|-2-2-2-2--2-2-2-|-6-6-6-6--6-6-6o|
A|-7-7-7-7--7-7-7-|-7-7-7-7--7-7-7-|-2-2-2-2--2-2-2-|-6-6-6-6--6-6-6-|
E|-5-5-5-5--5-5-5-|-5-5-5-5--5-5-5-|-0-0-0-0--0-0-0-|-4-4-4-4--4-4-4-|
 |                                                                   |
e|----------------|----------------|----------------|----------------|
b|-5-5-5-4--4-4-4-|-5-5-5-4--4-4-4-|-5-5-5-4--4-4-4-|-5-5-5-4--4-4-4-|
G|-6-6-6-6--6-6-6-|-6-6-6-6--6-6-6-|-6-6-6-6--6-6-6-|-6-6-6-6--6-6-6o|
D|----------------|----------------|----------------|---------------o|
A|----------------|----------------|----------------|----------------|
E|----------------|----------------|----------------|----------------|

   I need to leave this place 'cause I hate the human race.
   I need to hide away and stalk the night until the day.
   Rich men just bleed the poor, and I can take no more.
   So when the world is done, you will be the only one.


Chorus:

e|----------------|----------------|----------------|----------------|
b|----------------|----------------|----------------|----------------|
G|o---------------|----------------|-6--6-6--6--6-6-|----------------|
D|o2--2-2--2--2-2-|-6--6-6--6--6-6-|-6--6-6--6--6-6-|-7--7-7--7--7-7-|
A|-2--2-2--2--2-2-|-6--6-6--6--6-6-|-4--4-4--4--4-4-|-7--7-7--7--7-7-|
E|-0--0-0--0--0-0-|-4--4-4--4--4-4-|----------------|-5--5-5--5--5-5-|
 |                                                                   |
e|----------------|----------------|----------------|----------------|
b|----------------|----------------|----------------|----------------|
G|o---------------|----------------|-6--6-6--6--6-6-|----------------|
D|o2--2-2--2--2-2-|-6--6-6--6--6-6-|-6--6-6--6--6-6-|-7--7-7--7--7-7-|
A|-2--2-2--2--2-2-|-6--6-6--6--6-6-|-4--4-4--4--4-4-|-7--7-7--7--7-7-|
E|-0--0-0--0--0-0-|-4--4-4--4--4-4-|----------------|-5--5-5--5--5-5-|

                                    _________________________________
                                   |1.
e|----------------|----------------|----------------|----------------|
b|----------------|----------------|----------------|----------------|
G|----------------|----------------|--------%-------|--------%------o|
D|-2--2-2--2--2-2-|-6--6-6--6--6-6-|----------------|---------------o|
A|-2--2-2--2--2-2-|-6--6-6--6--6-6-|----------------|----------------|
E|-0--0-0--0--0-0-|-4--4-4--4--4-4-|----------------|----------------|
 |                                                                   |
e|----------------|----------------|----------------|----------------|
b|----------------|----------------|-4------4-------|-4--------------|
G|----------------|----------------|-6b8----6b8-----|-6b8----6-4-6\-o|
D|-2--2-2--2--2-2-|-6--6-6--6--6-6-|----------------|---------------o|
A|-2--2-2--2--2-2-|-6--6-6--6--6-6-|----------------|----------------|
E|-0--0-0--0--0-0-|-4--4-4--4--4-4-|----------------|----------------|

  ________________
 |2.
e|----------------|----------------|----------------|----------------|
b|----------------|----------------|----------------|----------------|
G|-6--6-6--6--6-6-|-6--6-6--6--6-6-|-6--6-6--6--6-6-|-6--6-6--6--6-6-|
D|-6--6-6--6--6-6-|-6--6-6--6--6-6-|-6--6-6--6--6-6-|-6--6-6--6--6-6-|
A|-4--4-4--4--4-4-|-4--4-4--4--4-4-|-4--4-4--4--4-4-|-4--4-4--4--4-4-|
E|----------------|----------------|----------------|----------------|
 |                                                                   |
e|----------------|----------------|----------------|----------------|
b|-5-5-5-4--4-4-4-|-5-5-5-4--4-4-4-|-5-5-5-4--4-4-4-|-5-5-5-4--4-4-4-|
G|-6-6-6-6--6-6-6-|-6-6-6-6--6-6-6-|-6-6-6-6--6-6-6-|-6-6-6-6--6-6-6-|
D|----------------|----------------|----------------|----------------|
A|----------------|----------------|----------------|----------------|
E|----------------|----------------|----------------|----------------|

   Not never for nothing. 
   It hits you in the head.
   And on and on they crawl, the minutes of our lives.
   We're born and then we're dead, dead, dead, dead, dead.


Post Chorus:

e|----------------|----------------|----------------|----------------|
b|----------------|----------------|----------------|----------------|
G|-------%--------|-------%--------|-------%--------|-------%--------|
D|----------------|----------------|----------------|----------------|
A|----------------|----------------|----------------|----------------|
E|----------------|----------------|----------------|----------------|
 |                                                                   |
e|----------------|----------------|----------------|----------------|
b|----------------|----------------|----------------|-7b-7-7b-7b-7b--|
G|-6--6-6--6--6-6-|-6--6-6--6--6-6-|-6--6-6--6--6-6-|----------------|
D|-6--6-6--6--6-6-|-6--6-6--6--6-6-|-6--6-6--6--6-6-|----------------|
A|-4--4-4--4--4-4-|-4--4-4--4--4-4-|-4--4-4--4--4-4-|----------------|
E|----------------|----------------|----------------|----------------|


Verse 2:

e|----------------|----------------|----------------|----------------|
b|----------------|----------------|----------------|----------------|
G|o6-6-6-6--6-6-6-|-6-6-6-6--6-6-6-|----------------|----------------|
D|o6-6-6-6--6-6-6-|-6-6-6-6--6-6-6-|-6-6-6-6--6-6-6-|-6-6-6-6--6-6-6-|
A|-4-4-4-4--4-4-4-|-4-4-4-4--4-4-4-|-6-6-6-6--6-6-6-|-6-6-6-6--6-6-6-|
E|----------------|----------------|-4-4-4-4--4-4-4-|-4-4-4-4--4-4-4-|
 |                                                                   |
e|----------------|----------------|----------------|----------------|
b|-5-5-5-4--4-4-4-|-5-5-5-4--4-4-4-|-5-5-5-4--4-4-4-|-5-5-5-4--4-4-4-|
G|o6-6-6-6--6-6-6-|-6-6-6-6--6-6-6-|-6-6-6-6--6-6-6-|-6-6-6-6--6-6-6-|
D|o---------------|----------------|----------------|----------------|
A|----------------|----------------|----------------|----------------|
E|----------------|----------------|----------------|----------------|

                                                                    4x
e|----------------|----------------|----------------|----------------|
b|----------------|----------------|----------------|----------------|
G|----------------|----------------|----------------|---------------o|
D|-7-7-7-7--7-7-7-|-7-7-7-7--7-7-7-|-2-2-2-2--2-2-2-|-6-6-6-6--6-6-6o|
A|-7-7-7-7--7-7-7-|-7-7-7-7--7-7-7-|-2-2-2-2--2-2-2-|-6-6-6-6--6-6-6-|
E|-5-5-5-5--5-5-5-|-5-5-5-5--5-5-5-|-0-0-0-0--0-0-0-|-4-4-4-4--4-4-4-|
 |                                                                   |
e|----------------|----------------|----------------|----------------|
b|-5-5-5-4--4-4-4-|-5-5-5-4--4-4-4-|-5-5-5-4--4-4-4-|-5-5-5-4--4-4-4-|
G|-6-6-6-6--6-6-6-|-6-6-6-6--6-6-6-|-6-6-6-6--6-6-6-|-6-6-6-6--6-6-6o|
D|----------------|----------------|----------------|---------------o|
A|----------------|----------------|----------------|----------------|
E|----------------|----------------|----------------|----------------|

   World terror invades my sleep 'til I can't fuck or eat.
   Where have all the values gone? That's another part for another song.
   While you sit idly by, you have no alibi.
   'Cause when the day is through, it's all your fault and my fault too.


Chorus:

e|----------------|----------------|----------------|----------------|
b|----------------|----------------|----------------|----------------|
G|o---------------|----------------|-6--6-6--6--6-6-|----------------|
D|o2--2-2--2--2-2-|-6--6-6--6--6-6-|-6--6-6--6--6-6-|-7--7-7--7--7-7-|
A|-2--2-2--2--2-2-|-6--6-6--6--6-6-|-4--4-4--4--4-4-|-7--7-7--7--7-7-|
E|-0--0-0--0--0-0-|-4--4-4--4--4-4-|----------------|-5--5-5--5--5-5-|
 |                                                                   |
e|----------------|----------------|----------------|----------------|
b|----------------|----------------|----------------|----------------|
G|o---------------|----------------|-6--6-6--6--6-6-|----------------|
D|o2--2-2--2--2-2-|-6--6-6--6--6-6-|-6--6-6--6--6-6-|-7--7-7--7--7-7-|
A|-2--2-2--2--2-2-|-6--6-6--6--6-6-|-4--4-4--4--4-4-|-7--7-7--7--7-7-|
E|-0--0-0--0--0-0-|-4--4-4--4--4-4-|----------------|-5--5-5--5--5-5-|
[ Tab from: http://www.guitaretab.com/s/star-fucking-hipsters/285830.html ]
                                    _________________________________
                                   |1.
e|----------------|----------------|----------------|----------------|
b|----------------|----------------|----------------|----------------|
G|----------------|----------------|--------%-------|--------%------o|
D|-2--2-2--2--2-2-|-6--6-6--6--6-6-|----------------|---------------o|
A|-2--2-2--2--2-2-|-6--6-6--6--6-6-|----------------|----------------|
E|-0--0-0--0--0-0-|-4--4-4--4--4-4-|----------------|----------------|
 |                                                                   |
e|----------------|----------------|----------------|----------------|
b|----------------|----------------|-4------4-------|-4--------------|
G|----------------|----------------|-6b8----6b8-----|-6b8----6-4-6\-o|
D|-2--2-2--2--2-2-|-6--6-6--6--6-6-|----------------|---------------o|
A|-2--2-2--2--2-2-|-6--6-6--6--6-6-|----------------|----------------|
E|-0--0-0--0--0-0-|-4--4-4--4--4-4-|----------------|----------------|

  ________________
 |2.
e|----------------|----------------|----------------|----------------|
b|----------------|----------------|----------------|----------------|
G|-6--6-6--6--6-6-|-6--6-6--6--6-6-|-6--6-6--6--6-6-|-6--6-6--6--6-6-|
D|-6--6-6--6--6-6-|-6--6-6--6--6-6-|-6--6-6--6--6-6-|-6--6-6--6--6-6-|
A|-4--4-4--4--4-4-|-4--4-4--4--4-4-|-4--4-4--4--4-4-|-4--4-4--4--4-4-|
E|----------------|----------------|----------------|----------------|
 |                                                                   |
e|----------------|----------------|----------------|----------------|
b|-5-5-5-4--4-4-4-|-5-5-5-4--4-4-4-|-5-5-5-4--4-4-4-|-5-5-5-4--4-4-4-|
G|-6-6-6-6--6-6-6-|-6-6-6-6--6-6-6-|-6-6-6-6--6-6-6-|-6-6-6-6--6-6-6-|
D|----------------|----------------|----------------|----------------|
A|----------------|----------------|----------------|----------------|
E|----------------|----------------|----------------|----------------|

   Not never for nothing. 
   It hits you in the head.
   And on and on they crawl, the minutes of our lives.
   We're born and then we're dead, dead, dead, dead, dead.


Post Chorus:

e|----------------|----------------|----------------|----------------|
b|----------------|----------------|----------------|----------------|
G|-------%--------|-------%--------|-------%--------|-------%--------|
D|----------------|----------------|----------------|----------------|
A|----------------|----------------|----------------|----------------|
E|----------------|----------------|----------------|----------------|
 |                                                                   |
e|----------------|----------------|----------------|----------------|
b|----------------|----------------|----------------|----------------|
G|-6--6-6--6--6-6-|-6--6-6--6--6-6-|-6--6-6--6--6-6-|----------------|
D|-6--6-6--6--6-6-|-6--6-6--6--6-6-|-6--6-6--6--6-6-|-/9-------------|
A|-4--4-4--4--4-4-|-4--4-4--4--4-4-|-4--4-4--4--4-4-|----------------|
E|----------------|----------------|----------------|----------------|
                                                       v


Verse 3:

e|----------------|----------------|----------------|----------------|
b|----------------|----------------|----------------|----------------|
G|o6-6-6-6--6-6-6-|-6-6-6-6--6-6-6-|----------------|----------------|
D|o6-6-6-6--6-6-6-|-6-6-6-6--6-6-6-|-6-6-6-6--6-6-6-|-6-6-6-6--6-6-6-|
A|-4-4-4-4--4-4-4-|-4-4-4-4--4-4-4-|-6-6-6-6--6-6-6-|-6-6-6-6--6-6-6-|
E|----------------|----------------|-4-4-4-4--4-4-4-|-4-4-4-4--4-4-4-|
 |                                                                   |
e|----------------|----------------|----------------|----------------|
b|-5-5-5-4--4-4-4-|-5-5-5-4--4-4-4-|-5-5-5-4--4-4-4-|-5-5-5-4--4-4-4-|
G|o6-6-6-6--6-6-6-|-6-6-6-6--6-6-6-|-6-6-6-6--6-6-6-|-6-6-6-6--6-6-6-|
D|o---------------|----------------|----------------|----------------|
A|----------------|----------------|----------------|----------------|
E|----------------|----------------|----------------|----------------|

                                                                    4x
e|----------------|----------------|----------------|----------------|
b|----------------|----------------|----------------|----------------|
G|----------------|----------------|----------------|---------------o|
D|-7-7-7-7--7-7-7-|-7-7-7-7--7-7-7-|-2-2-2-2--2-2-2-|-6-6-6-6--6-6-6o|
A|-7-7-7-7--7-7-7-|-7-7-7-7--7-7-7-|-2-2-2-2--2-2-2-|-6-6-6-6--6-6-6-|
E|-5-5-5-5--5-5-5-|-5-5-5-5--5-5-5-|-0-0-0-0--0-0-0-|-4-4-4-4--4-4-4-|
 |                                                                   |
e|----------------|----------------|----------------|----------------|
b|-5-5-5-4--4-4-4-|-5-5-5-4--4-4-4-|-5-5-5-4--4-4-4-|-5-5-5-4--4-4-4-|
G|-6-6-6-6--6-6-6-|-6-6-6-6--6-6-6-|-6-6-6-6--6-6-6-|-6-6-6-6--6-6-6o|
D|----------------|----------------|----------------|---------------o|
A|----------------|----------------|----------------|----------------|
E|----------------|----------------|----------------|----------------|

   Board rooms will play bored games until your town's in flames.
   And if you get away, they'll hunt you down another day.
   So duck and cover good when they attack your hood.
   We need to shoot 'em back, or we will feel the thunder crack.

   Until we're dead. Until we're dead. Until we're dead. Until we're dead.
   Until we're dead. Until we're dead. That's what the soldier said.

   Until we're dead. Until we're dead. Until we're dead. Until we're dead.
   Until we're dead. Until we're dead. That's what the police said.


Chorus:

e|----------------|----------------|----------------|----------------|
b|----------------|----------------|----------------|----------------|
G|o---------------|----------------|-6--6-6--6--6-6-|----------------|
D|o2--2-2--2--2-2-|-6--6-6--6--6-6-|-6--6-6--6--6-6-|-7--7-7--7--7-7-|
A|-2--2-2--2--2-2-|-6--6-6--6--6-6-|-4--4-4--4--4-4-|-7--7-7--7--7-7-|
E|-0--0-0--0--0-0-|-4--4-4--4--4-4-|----------------|-5--5-5--5--5-5-|
 |                                                                   |
e|----------------|----------------|----------------|----------------|
b|----------------|----------------|----------------|----------------|
G|o---------------|----------------|-6--6-6--6--6-6-|----------------|
D|o2--2-2--2--2-2-|-6--6-6--6--6-6-|-6--6-6--6--6-6-|-7--7-7--7--7-7-|
A|-2--2-2--2--2-2-|-6--6-6--6--6-6-|-4--4-4--4--4-4-|-7--7-7--7--7-7-|
E|-0--0-0--0--0-0-|-4--4-4--4--4-4-|----------------|-5--5-5--5--5-5-|

                                    _________________________________
                                   |1.
e|----------------|----------------|----------------|----------------|
b|----------------|----------------|----------------|----------------|
G|----------------|----------------|--------%-------|--------%------o|
D|-2--2-2--2--2-2-|-6--6-6--6--6-6-|----------------|---------------o|
A|-2--2-2--2--2-2-|-6--6-6--6--6-6-|----------------|----------------|
E|-0--0-0--0--0-0-|-4--4-4--4--4-4-|----------------|----------------|
 |                                                                   |
e|----------------|----------------|----------------|----------------|
b|----------------|----------------|-4------4-------|-4--------------|
G|----------------|----------------|-6b8----6b8-----|-6b8----6-4-6\-o|
D|-2--2-2--2--2-2-|-6--6-6--6--6-6-|----------------|---------------o|
A|-2--2-2--2--2-2-|-6--6-6--6--6-6-|----------------|----------------|
E|-0--0-0--0--0-0-|-4--4-4--4--4-4-|----------------|----------------|

  ________________
 |2.
e|----------------|----------------|----------------|----------------|
b|----------------|----------------|----------------|----------------|
G|-6-%------------|----------------|----------------|----------------|
D|-6--------------|----------------|----------------|----------------|
A|-4--------------|----------------|----------------|----------------|
E|----------------|----------------|----------------|----------------|
 |                                                                   |
e|----------------|----------------|----------------|----------------|
b|----------------|----------------|----------------|-7b-7-7b-7b-7b--|
G|-6-%------------|----------------|----------------|----------------|
D|-6--------------|----------------|----------------|----------------|
A|-4--------------|----------------|----------------|----------------|
E|----------------|----------------|----------------|----------------|

   Not never for nothing. 
   It hits you in the head.
   And on and on they crawl, the minutes of our lives.
   We're born and then we're dead.


Verse 3:

e|----------------|----------------|----------------|----------------|
b|----------------|----------------|----------------|----------------|
G|o6-6-6-6--6-6-6-|-6-6-6-6--6-6-6-|----------------|----------------|
D|o6-6-6-6--6-6-6-|-6-6-6-6--6-6-6-|-6-6-6-6--6-6-6-|-6-6-6-6--6-6-6-|
A|-4-4-4-4--4-4-4-|-4-4-4-4--4-4-4-|-6-6-6-6--6-6-6-|-6-6-6-6--6-6-6-|
E|----------------|----------------|-4-4-4-4--4-4-4-|-4-4-4-4--4-4-4-|
 |                                                                   |
e|----------------|----------------|----------------|----------------|
b|-5-5-5-4--4-4-4-|-5-5-5-4--4-4-4-|-5-5-5-4--4-4-4-|-5-5-5-4--4-4-4-|
G|o6-6-6-6--6-6-6-|-6-6-6-6--6-6-6-|-6-6-6-6--6-6-6-|-6-6-6-6--6-6-6-|
D|o---------------|----------------|----------------|----------------|
A|----------------|----------------|----------------|----------------|
E|----------------|----------------|----------------|----------------|

                                                                    4x
e|----------------|----------------|----------------|----------------|
b|----------------|----------------|----------------|----------------|
G|----------------|----------------|----------------|---------------o|
D|-7-7-7-7--7-7-7-|-7-7-7-7--7-7-7-|-2-2-2-2--2-2-2-|-6-6-6-6--6-6-6o|
A|-7-7-7-7--7-7-7-|-7-7-7-7--7-7-7-|-2-2-2-2--2-2-2-|-6-6-6-6--6-6-6-|
E|-5-5-5-5--5-5-5-|-5-5-5-5--5-5-5-|-0-0-0-0--0-0-0-|-4-4-4-4--4-4-4-|
 |                                                                   |
e|----------------|----------------|----------------|----------------|
b|-5-5-5-4--4-4-4-|-5-5-5-4--4-4-4-|-5-5-5-4--4-4-4-|-5-5-5-4--4-4-4-|
G|-6-6-6-6--6-6-6-|-6-6-6-6--6-6-6-|-6-6-6-6--6-6-6-|-6-6-6-6--6-6-6o|
D|----------------|----------------|----------------|---------------o|
A|----------------|----------------|----------------|----------------|
E|----------------|----------------|----------------|----------------|

   Fault lines crack through the sand, to swallow-up the land.
   On this one truth I stand, on this one hope I plan.
   So when you crash your cars, you'll float up to the stars.
   You fuckin' hipster fool: we will be star-fucking you!

   Until we're dead. Until we're dead. Until we're dead. Until we're dead.
   Until we're dead. Until we're dead. That's what the soldier said.

   Until we're dead. Until we're dead. Until we're dead. Until we're dead.
   Until we're dead. Until we're dead. That's what the police said.


Outro:

e|----------------|----------------|----------------|----------------|
b|----------------|----------------|----------------|----------------|
G|o6-6-6-6--6-6-6-|-6-6-6-6--6-6-6-|----------------|----------------|
D|o6-6-6-6--6-6-6-|-6-6-6-6--6-6-6-|-6-6-6-6--6-6-6-|-6-6-6-6--6-6-6-|
A|-4-4-4-4--4-4-4-|-4-4-4-4--4-4-4-|-6-6-6-6--6-6-6-|-6-6-6-6--6-6-6-|
E|----------------|----------------|-4-4-4-4--4-4-4-|-4-4-4-4--4-4-4-|
 |                                                                   |
e|----------------|----------------|----------------|----------------|
b|-5-5-5-4--4-4-4-|-5-5-5-4--4-4-4-|-5-5-5-4--4-4-4-|-5-5-5-4--4-4-4-|
G|o6-6-6-6--6-6-6-|-6-6-6-6--6-6-6-|-6-6-6-6--6-6-6-|-6-6-6-6--6-6-6-|
D|o---------------|----------------|----------------|----------------|
A|----------------|----------------|----------------|----------------|
E|----------------|----------------|----------------|----------------|

                                                                    3x
e|----------------|----------------|----------------|----------------|
b|----------------|----------------|----------------|----------------|
G|----------------|----------------|----------------|---------------o|
D|-7-7-7-7--7-7-7-|-7-7-7-7--7-7-7-|-2-2-2-2--2-2-2-|-6-6-6-6--6-6-6o|
A|-7-7-7-7--7-7-7-|-7-7-7-7--7-7-7-|-2-2-2-2--2-2-2-|-6-6-6-6--6-6-6-|
E|-5-5-5-5--5-5-5-|-5-5-5-5--5-5-5-|-0-0-0-0--0-0-0-|-4-4-4-4--4-4-4-|
 |                                                                   |
e|----------------|----------------|----------------|----------------|
b|-5-5-5-4--4-4-4-|-5-5-5-4--4-4-4-|-5-5-5-4--4-4-4-|-5-5-5-4--4-4-4-|
G|-6-6-6-6--6-6-6-|-6-6-6-6--6-6-6-|-6-6-6-6--6-6-6-|-6-6-6-6--6-6-6o|
D|----------------|----------------|----------------|---------------o|
A|----------------|----------------|----------------|----------------|
E|----------------|----------------|----------------|----------------|

   Until we're dead. Until we're dead. Until we're dead. Until we're dead.
   Until we're dead. Until we're dead. Until we're dead. Until we're dead.

   Until we're dead. Until we're dead. Until we're dead. Until we're dead.
   Until we're dead. Until we're dead. Until we're dead. Until we're dead.

[fade out]

Related for Until Were Dead tab
Until Were Dead chords by Star Fucking Hipsters