Song name
# A B C D E F G H I J K L M N O P Q R S T U V W X Y Z

Starewell - 28 tab

"28" by Starewell (Intro: revised)
Tabbed by: Matt Bryant

Sorry, this one is exactly the same, with a minor addition that makes it more correct.

e|-----------------------------------------------------------------|
B|---6-6-6-6---6-6-6-6---6-6-6-6---6-6-6-6---6-6-6-6---6-6-6-6---5-|
G|---7-7-7-7---7-7-7-7---7-7-7-7---7-7-7-7---7-7-7-7---7-7-7-7---6-|
D|---7-7-7-7---7-7-7-7---7-7-7-7---7-7-7-7---7-7-7-7---7-7-7-7---6-|
A|-5-5-5-5-5-5-5-5-5-5-5-5-5-5-5-5-5-5-5-5-5-5-5-5-5-5-5-5-5-5-5-4-|
E|-----------------------------------------------------------------|

e|-----------------------------------------------------------------|
B|-----------------------6-6-6-6---6-6-6-6---5---6-6-6-6---6-6-6-6-|
G|---6-6-6-6---6-6-6-6---7-7-7-7---7-7-7-7---6---7-7-7-7---7-7-7-7-|
D|---5-5-5-5---5-5-5-5---7-7-7-7---7-7-7-7---6---7-7-7-7---7-7-7-7-|
A|-7-7-7-7-7-7-7-7-7-7-5-5-5-5-5-5-5-5-5-5-5-4-5-5-5-5-5-5-5-5-5-5-|
E|-----------------------------------------------------------------|

e|---------------------------------------------------------------------------|
B|---6-6-6-6---6-6-6-6---5-----------------------6-6-6-6---6-6-6-6-----------|
G|---7-7-7-7---7-7-7-7---6---6-6-6-6---6-6-6-6---7-7-7-7---7-7-7-7-----------|
D|---7-7-7-7---7-7-7-7---6---5-5-5-5---5-5-5-5---7-7-7-7---7-7-7-7-----------|
A|-5-5-5-5-5-5-5-5-5-5-5-4-7-7-7-7-7-7-7-7-7-7-5-5-5-5-5-5-5-5-5-5-5-6-5-4-5-|
Tap to rate this tab
# A B C D E F G H I J K L M N O P Q R S T U V W X Y Z