Song name
# A B C D E F G H I J K L M N O P Q R S T U V W X Y Z

State Of Alert - Lost In Space tab

Verse:
e|--------------------|
B|--------------(x )--|
G|-----9--7-----------|
D|--9--9--7--5--------|
A|--9--7--5--5--------|
E|--7--------3--------|

Chorus:
e|----------------------------------|---------------------------|
B|----------------------------(x3)--|---------------------------|
G|----------------5-5-5-------------|----------------5-5-5-5-5--|
D|--7-7-7--5-5-5--5-5-5--9-9--------|--7-7-7--5-5-5--5-5-5-5-5--|
A|--7-7-7--5-5-5--3-3-3--9-9--------|--7-7-7--5-5-5--3-3-3-3-3--|
E|--5-5-5--3-3-3---------7-7--------|--5-5-5--3-3-3-------------|

Repeat Verse/Chorus

|-----||
|-----||
|-----||
|--7--||
|--7--||
|--5--||
Tap to rate this tab
# A B C D E F G H I J K L M N O P Q R S T U V W X Y Z