Song name
# A B C D E F G H I J K L M N O P Q R S T U V W X Y Z

State Radio - Camilo tab

Artist:    State Radio
Song:      Camilo
Album:     Us Against The Crown
Tabbed by: hainzei95

Tuning: Standard

. = Palm-Muted
~ = hold note
^ = vibrate
p = pull off
h = hammer on
/ = slide up
\ = slide down


e|----------------------------------------------|
B|----------------------------------------------|
G|-------5-----7---------------5-----7----------|
D|---5h7---5h7---7-5-------5h7---5h7---5.5.5.5.-|
A|-5-----------------8-5------------------------|
E|----------------------------------------------|

e|----------------------------------|
B|----------------------------------|
G|------5-----7---------------------|
D|--5h7---5h7---7-5------5-5-5555---|
A|------------------8-5-----------8-|
E|----------------------------------|

e|----------------------------------------------|
B|----------------------------------------------|
G|-------5-----7---------------5--4^5^4---4h5---|
D|---5h7---5h7---7-5-------5h7----------7-----5-|
A|-5-----------------8-5------------------------|
E|----------------------------------------------|

e|-----------------------------------|
B|-----------------------------------|
G|------5-----7----------------------|
D|--5h7---5h7---7-5------5-5-5555----|
A|------------------8-5-----------8~-|
E|-----------------------------------|


A|-/12-12-12-\7-7-7-\3-3-3-/8-8-8-/12-12-12-\7-7-7-\3-3-3-/8~-|
Tap to rate this tab
 
# A B C D E F G H I J K L M N O P Q R S T U V W X Y Z