Song name
# A B C D E F G H I J K L M N O P Q R S T U V W X Y Z

State Radio - Camilo tab

Highlighted       Show chord diagrams
Dm
Woke him up with a barrel to his head

His eyes shut tight bracing for the blow
G
Resigning his life to the metal held
                 Dm      Dsus2
In another man's hand

Dm              Bb
Twenty days in a concrete fallout
F                   C
What life have i to take your own
Dm            Bb
Oh my country won't you call out
F                          C
Doorbells are ringing with boxes of bones
Dm                         Bb
...And from another land's war torn corners
F                C
To a prison cell in my own
Dm                Bb
Punish me for not taking your orders
F                        C              Dsus2
But don't lock me up for not leavin' my home


Dm                       Bb
Your words just a bloody fallacy
F                          C
A house of cards you paint-ed white
Dm                    Bb
You tried to recreate normandy
          F           C
(But you) made up the reason to fight
            Dm              F
And now red oil is spillin' down on the street
         F                    C
And your eyes too big for the belly is weak
         Dm              F
Will you not refuse this currency
      C                         Dm
Or is blood money just money to you
   C                         Dm    Dsus2 Dm Dsus2
Is blood money just money to you

Dm              Bb
Twenty days in a concrete fallout
F                   C
What life have i to take your own
Dm            Bb
Oh my country won't you call out
F                          C
Doorbells are ringing with boxes of bones
Dm                         Bb
...And from another land's war torn corners
F                C
To a prison cell in my own
Dm                Bb
Punish me for not taking your orders
F                        C              G
But don't lock me up for not leavin' my home
(repeat previous chorus)
                             Dm     F       C       Bb
Second ending: ...leavin' my home      Camilo, Camilo

           Dm     F        C       Bb
Leavin' my home       Camilo, Camilo


Dm	F	C	Dm
(Repeat until solo)

(Solo)
------------------------------------------------x-x-x-x-----------------------------------------------|
------------------------------------------------x-x-x-x-----------------------------------------------|
-0-----5--0-----7--0h2p0------0-----5--0-----7--x-x-x-x--0-----5--0-----7--0h2p0-----0-0-0-0-0-0-0----|
---5h7------5h7----------3-0----5h7------5h7----x-x-x-x----5h7------5h7----------3-0---------------3--|
------------------------------------------------x-x-x-x-----------------------------------------------|
------------------------------------------------x-x-x-x-----------------------------------------------|

-----------------------------------------------------------------------------------------------------|
-----------------------------------------------------------------------------------------------------|
-0-----5--0-----7--0h2p0------0-----5--0-4-5-4-0-4-5-0--0-----5--0-----7--0h2p0-----0-0-0-0-0-0-0----|
---5h7------5h7----------3-0----5h7-----------------------5h7------5h7----------3-0---------------3--|
-----------------------------------------------------------------------------------------------------|
-----------------------------------------------------------------------------------------------------|

(Outro)

-----------------------------------------------------------------|
-----------------------------------------------------------------|
-----------------------------------------------------------------|
-----------------------------------------------------------------|
-8--8-s12--12--12s7--7--7s3--3--3s8--8--8-s12--12--12s7--7--7s3--|
-10-10s13--13--13s8--8--8s5--5--5s10-10-10s13--13--13s8--8--8s5--|

FIN
Tap to rate this tab
 
# A B C D E F G H I J K L M N O P Q R S T U V W X Y Z