Song name
# A B C D E F G H I J K L M N O P Q R S T U V W X Y Z

State Radio - Man In The Hall tab

-------------------------------------------------------------------------------
			     Man in the Hall - State Radio
-------------------------------------------------------------------------------



Tuning: Standard EADGBE

Main Riff - played through most of the song
e|---------------------------------------------------------------------------|
B|---------------------------------------------------------------------------|
G|---------------------------------------------------------------------------|
D|-------------2-------2-----------------------------------------------------|
A|-0-0-0-3-0-0---0-3-0---3-----3-5-3-2---2-----------------------------------|
E|-------------------------1-1---------3-------------------------------------|

Chorus:
e|---------------------------------------------------------------------------|
B|---------------------------------------------------------------------------|
G|---------------------------------------------------------------------------|
D|---------------------------------------------------------------------------|
A|-7-7-7-7-3-3-2-2-5--7-7-7-7-3-3-2-2-5--7-7-7-7-3-3-2-2-5--7-7-5-5-3-3-2-2-5|
E|-5-5-5-5-1-1-0-0-3--5-5-5-5-1-1-0-0-3--5-5-5-5-1-1-0-0-3--5-5-5-5-1-1-0-0-3|

Release: 1:57 "have you not seen..."
e|---------------------------------------------------------------------------|
B|---------------------------------------------------------------------------|
G|---------------------------------------------------------------------------|
D|-5-5-5-5-------------------------------------------------------------------|
A|-3-3-3-3--5-5-5-5--7-7-7-7--3-3--2-2---------------------------------------|
E|----------3-3-3-3--5-5-5-5--1-1--0-0---------------------------------------|
  2:18
e|---------------------------------------------------------------------------|
B|---------------------------------------------------------------------------|
G|---------------------------------------------------------------------------|
D|---------------------------------------------------------------------------|
A|-7-7-3-3-7-7-3-3-7-7-3-3-7-7-3-3-------------------------------------------|
E|-5-5-1-1-5-5-1-1-5-5-1-1-5-5-1-1-------------------------------------------|

End on
e|---------------------------------------------------------------------------|
B|---------------------------------------------------------------------------|
G|---------------------------------------------------------------------------|
D|---------------------------------------------------------------------------|
A|-7-7-----------------------------------------------------------------------|
E|-5-5-----------------------------------------------------------------------|


Those are the main parts of the song.


===============================================================================
Tap to rate this tab
# A B C D E F G H I J K L M N O P Q R S T U V W X Y Z