Song name
# A B C D E F G H I J K L M N O P Q R S T U V W X Y Z

State Radio - Mansin Humanity tab

-------------------------------------------------------------------------------
			     Mansin Humanity (acoustic) - State Radio
-------------------------------------------------------------------------------
Tabbed by: Me
Email:

Tuning: Standard

Based off : http://www.youtube.com/watch?v=lSKSQ05WIRM

I know it's not 100% correct but is enough to sing over and you need to watch the
intro to get the rhytm down. Have Fun

e|---------------------------------------------------------------------------|
B|---------------------------------------------------------------------------|
G|---------------------------------------------------------------------------|
D|--22---22-2---------0---------222------------------------------------------|
A|--22---22-222-------22-0h2-22-222----22------------------------------------|
E|0-00-3-00-22250h2-3-33-3---33-222-5--22------------------------------------|

e|---------------------------------------------------------------------------|
B|---------------------------------------------------------------------------|
G|---------------------------------------------------------------------------|
D|--22---22-2----------0---------222-----------------------------------------|
A|--22---22-222---22---22-0h2-22-222---22------------------------------------|
E|0-00-3-00-222-5-22-3-33-3---33-222-5-22------------------------------------|

Verse Chords

Em D/F# G Am

G Am G D/F#

Chorus

C G C G
C G D/F#

Intro Again

Then rinse and repeat and if you listen closely he's doing some one note variations on 
chorus chords but just
listen to it and youll get it down
Tap to rate this tab
# A B C D E F G H I J K L M N O P Q R S T U V W X Y Z