Song name
# A B C D E F G H I J K L M N O P Q R S T U V W X Y Z

State Radio - Mansin Humanity tab

Mansin Humanity
By State Radio

Intro
e|-------------------------------------------------------------------------------------|
B|-------------------------------------------------------------------------------------|
G|-------------------------------------------------------------------------------------|
D|---2-2---2---2-2---2-----------------------------------------------------------------|
A|---2-2---2---2-2---2---------------------------2---------2---------------------------|
E|---0-0-3-0---0-0-3-0---2-2-5-2---2-2-5-2---3-3---3---3-3---3---2-2-5-2---2-2-5-2-----|


Main Riff
e|---------------------------------------------------|
B|---------------------------------------------------|
G|---------------------------------------------------|
D|---2-2---2-----------------------------------------|
A|---2-2---2---------------------2-------------------|
E|---0-0-3-0---2-2-2-5-2---3-3-3---3---2-2-2-5-2-----|


Verse
e|---0-------3---0---3---0---3---------|
B|---0---3---3---1---3---1---3---3-----|
G|---0---2---0---2---0---2---0---2-----|
D|---2---0---0---2---0---2---0---0-----|
A|---2-------2---0---2---0---2---------|
E|---0---2---3-------3-------3---2-----|


Chorus
e|---0---3---0---3-----|
B|---1---3---1---3-----|
G|---0---0---0---0-----|
D|---2---0---2---0-----|
A|---3---2---3---2-----|
E|-------3-------3-----|
Tap to rate this tab
# A B C D E F G H I J K L M N O P Q R S T U V W X Y Z