Song name
# A B C D E F G H I J K L M N O P Q R S T U V W X Y Z

Static X - Bled For Days tab

 Band: Static-X
 Song: Bled For Days
 Tuning: C G C F A D

  
 Intro:
 D|------------------|
 A|------------------|
 F|------------------|
 C|-0-2-0-2-0-2--3-2-|
 G|-0-2-0-2-0-2--3-2-|8x
 C|-0-2-0-2-0-2--3-2-|

 2nd Intro:
 D|-------------|
 A|-------------|
 F|-------------|
 C|-3--0--3--0--|
 G|-3--0--3--0--|4x
 C|-3--0--3--0--|

 Pre-Verse:
 D|-------|
 A|-------|
 F|-------|
 C|-2--3--|
 G|-2--3--|4x
 C|-2--3--|

 Verse:
 D|-----|
 A|-----|
 F|-----|
 C|--2--|
 G|--2--|4x
 C|--2--|

 Pre-Verse:
 D|-------|
 A|-------|
 F|-------|
 C|-2--3--|
 G|-2--3--|4x
 C|-2--3--|

 Verse:
 D|-----|
 A|-----|
 F|-----|
 C|--2--|
 G|--2--|4x
 C|--2--|

 Chorus:
 D|-------------------------------------------------------------|
 A|-------------------------------------------------------------|
 F|-------------------------------------------------------------|
 C|-101010101010101010101010101010111111111111111111111111111111|
 G|--x-x-x-x-x-x-x-x-x-x-x-x-x-x-x-x-x-x-x-x-x-x-x-x-x-x-x-x-x-x|2x
 C|--8-8-8-8-8-8-8-8-8-8-8-8-8-8-8-9-9-9-9-9-9-9-9-9-9-9-9-9-9-9|

 Verse:
 D|-----|
 A|-----|
 F|-----|
 C|--2--|
 G|--2--|4x
 C|--2--|

 Chorus:
 D|-------------------------------------------------------------|
 A|-------------------------------------------------------------|
 F|-------------------------------------------------------------|
 C|-101010101010101010101010101010111111111111111111111111111111|
 G|--x-x-x-x-x-x-x-x-x-x-x-x-x-x-x-x-x-x-x-x-x-x-x-x-x-x-x-x-x-x|2x
 C|--8-8-8-8-8-8-8-8-8-8-8-8-8-8-8-9-9-9-9-9-9-9-9-9-9-9-9-9-9-9|
Tap to rate this tab
 
# A B C D E F G H I J K L M N O P Q R S T U V W X Y Z