Song name
# A B C D E F G H I J K L M N O P Q R S T U V W X Y Z

Static X - Cannibal tab

This song is from there new album Cannibal very easy and tuning is correct I asked Wayne 
my self sooo enjoy playing Sorry but no solo  Tunning is
A# F A# D# G C
Key:
. PM
/ Slide

Intro

C-------------------------------------|
G-------------------------------------|
D#------------------------------------|
A#--4--4--4--4--4--4--4--4--4--4------|  X2
F---2--2--2--2--2--2--2--2--2--2------|
A#------------------------------------|

Pre Riff 1

C----------------------------------------------|
G----------------------------------------------|
D#---------------------------------------------|
A#-----------------------------------------5/4-|
F------------------------------------------7/6-|
A#-0-0-0-0-0-0-0-0-0-0-0-0-0-0-0-0-0-0-0-0-----|
   . . . . . . . . . . . . . . . . . . . .

Riff 1 / Chorus

C-------------------------------------|
G-------------------------------------|
D#------------------------------------|
A#---------------------5/4------------|
F----------------------7/6------------|
A#-0-0-0-0-0-0-0-0-0-0----------------|
   . . . . . . . . . .

Bridge

C-------------------------------------|
G-------------------------------------|
D#------------------------------------|
A#---------------------5/4------------| X6
F----------------------7/6------------|
A#-0-0-0-0-0-0-0-0-0-0----------------|
   . . . . . . . . . .


C-------------------------------------|
G-------------------------------------|
D#------------------------------------|
A#--4--4--4--4--4--4--4--4--4--4------| X4
F---2--2--2--2--2--2--2--2--2--2------|
A#------------------------------------|
Tap to rate this tab
# A B C D E F G H I J K L M N O P Q R S T U V W X Y Z