Song name
# A B C D E F G H I J K L M N O P Q R S T U V W X Y Z

Static X - Permanence tab

-------------------------------------------------------------------------------
			      PERMANENCE - THIS IS HELL
-------------------------------------------------------------------------------

SONG:  PERMANENCE
BAND:  THIS IS HELL  [ http://www.thisishell.org/ ]
ALBUM: SUNDOWNING


TABBED BY: GREG
EMAIL: GREGTALAMINI@OPTONLINE.NET

TUNING: DOWN A HALF STEP. [LOW TO HIGH = Eb Ab Db Gb Bb Eb]

=======
INTRO
=======

GUITAR 1

eb|---------------------------------------------------------------------------|
Bb|---------------------------------------------------------------------------|
Gb|---------------------------------------------------------------------------|
Db|--2--[LET-RING]->->->->->->->->->->->->->->->->->->->->--------------------|
Ab|--2------------------------------------------------------------------------|
Eb|--0------------------------------------------------------------------------|

GUITAR 2

eb|---------------------------------------------------------------------------|
Bb|---------------------------------------------------------------------------|
Gb|---------------------------------------------------------------------------|
Db|---------------------------------------------------------------------------|
Ab|--2/10------9---7---7h9----------------------------------------------------|
Eb|--0---------------------8------PICKSLIDE->>>>>>>>>>>>>>>>------------------|

=======
PART A
=======

GUITARS 1 & 2

eb|---------------------------------------------------------------------------|
Bb|---------------------------------------------------------------------------|
Gb|--------------------5-5-5-5-5-5-/-8-8-8-8-8-/-9----------------------------|
Db|--2-2-2-2-2-2-2-2---5-5-5-5-5-5-/-8-8-8-8-8-/-9----------------------------|
Ab|--2-2-2-2-2-2-2-2---3-3-3-3-3-3-/-6-6-6-6-6-/-7-------[REPEAT-3-TIMES]-----|
Eb|--0-0-0-0-0-0-0-0----------------------------------------------------------|


=======
PART B
=======

GUITAR 1

eb|---------------------------------------------------------------------------|
Bb|---------------------------------------------------------------------------|
Gb|---------------------------------------------------------------------------|
Db|--2-2-2-2-2-2-2-2-2-2-2-2-2---2---2-2-2-2-2-2-2----------------------------|
Ab|--2-2-2-2-2-2-2-2-2-2-2-2-2---2---2-2-2-2-2-2-2----------------------------|
Eb|--0-0-0-0-0-0-0-0-0-0-0-0-0---0---0-0-0-0-0-0-0----------------------------|
 pm  * * * * * * * * * * * * *       * * * * * *


GUITAR 2

eb|---------------------------------------------------------------------------|
Bb|---------------------------------------------------------------------------|
Gb|----------------4--4--7--9-------------------------------------------------|
Db|----------------x--x--x--x----2---2-2-2-2-2-2-2----------------------------|
Ab|----------------2--2--5--7----2---2-2-2-2-2-2-2----------------------------|
Eb|------------------------------0---0-0-0-0-0-0-0----------------------------|
   pm                                * * * * * *

======
PART C
======

GUITARS 1 & 2

 "THIS IS THE END..."   eb|----------------------------------------|
Bb|----------------------------------------------------------------|
Gb|--------------------------5-5-5-5------------5-5-------8-8-8-8--|
Db|--------------2-2-2-2-2---5-5-5-5--2-2-2-2---5-5---2---8-8-8-8--|
Ab|--------------2-2-2-2-2---3-3-3-3--2-2-2-2---3-3---2---6-6-6-6--|
Eb|--------------0-0-0-0-0------------0-0-0-0---------0------------|


  " WAS HIDDEN DEEP IN THE GROOVES OF RECORD SKIP REFRAIN..."
eb|---------------------------------------------------------------------------|
Bb|---------------------------------------------------------------------------|
Gb|--------------5-5-5-5-5--4-4-4-4-4--5-5-5-5-4-2----------------------------|
Db|--2-2-2-2-2---5-5-5-5-5--4-4-4-4-4--5-5-5-5-4-2----------------------------|
Ab|--2-2-2-2-2---3-3-3-3-3--2-2-2-2-2--3-3-3-3-2-0----------------------------|
Eb|--0-0-0-0-0----------------------------------------------------------------|


  " NO, THERE'S NO TURNING BACK FROM NIGHTS LIKE THESE."   eb|--|
Bb|-------------------------------------------------------------|
Gb|---------------5-5-5-5------------5-5-------8-8-8-8----------|
Db|---2-2-2-2-2---5-5-5-5--2-2-2-2---5-5---2---8-8-8-8----------|
Ab|---2-2-2-2-2---3-3-3-3--2-2-2-2---3-3---2---6-6-6-6----------|
Eb|---0-0-0-0-0------------0-0-0-0---------0--------------------|

 " WE'LL WRITE MELANCHOLY ANTHEMS, TO COMMEMORATE DISASTER...."
eb|--------------------------------------------------------------------------------|
Bb|--------------------------------------------------------------------------------|
Gb|--------------5-5-5-5-5--4-4-4-4-4--5-5-5-5-4-2---------------------------------|
Db|--2-2-2-2-2---5-5-5-5-5--4-4-4-4-4--5-5-5-5-4-2---------------------------------|
Ab|--2-2-2-2-2---3-3-3-3-3--2-2-2-2-2--3-3-3-3-2-0--[THIS-GOES-RIGHT-INTO-PART-D---|
Eb|--0-0-0-0-0---------------------------------------------------------------------|

=======
PART D
=======

 "BOOKMARK THIS PAGE, CAUSE THIS IS WHERE THINGS FALL APART..."
eb|---------------------------------------------------------------------------|
Bb|---------------------------------------------------------------------------|
Gb|---5-5-5-5-5-5-5-5-5-5-5-5-5-5-5----9-9-9-9-9-9-9-9-9-9--------------------|
Db|---5-5-5-5-5-5-5-5-5-5-5-5-5-5-5----9-9-9-9-9-9-9-9-9-9--------------------|
Ab|---3-3-3-3-3-3-3-3-3-3-3-3-3-3-3----7-7-7-7-7-7-7-7-7-7--------------------|
Eb|------------------------------------0-0-0-0-0-0-0-0-0-0--------------------|


 "REMEMBER THESE DAYS CAUSE THIS IS HOW DOWNWARD SPIRALS START..."
eb|---------------------------------------------------------------------------|
Bb|---------------------------------------------------------------------------|
Gb|---5-5-5-5-5-5-5-5-5-5----9-9-9-9-9-9-9-9-9-9------------------------------|
Db|---5-5-5-5-5-5-5-5-5-5----9-9-9-9-9-9-9-9-9-9------------------------------|
Ab|---3-3-3-3-3-3-3-3-3-3----7-7-7-7-7-7-7-7-7-7------------------------------|
Eb|--------------------------0-0-0-0-0-0-0-0-0-0------------------------------|


  "THESE ARE THINGS I NEVER WANTED TO SAY"
eb|---------------------------------------------------------------------------|
Bb|---------------------------------------------------------------------------|
Gb|---5-5-5-5-5-5-5-5-5-5----9-9----------------------------------------------|
Db|---5-5-5-5-5-5-5-5-5-5----9-9----------22-----------22--------2------------|
Ab|---3-3-3-3-3-3-3-3-3-3----7-7----------22-----------22--------2------------|
Eb|--------------------------0-0----------00-----------00--------0--[LET-RING]|

======
PART E
======

GUITAR 1

      "THIS IS PERMANENCE. THIS IS YOUTH'S LAST LAST DANCE."
eb|---------------------------------------------------------------------------|
Bb|---------------------------------------------------------------------------|
Gb|---------------------------------------------------------------------------|
Db|-2-2-2-2-2-2-2-2-2-2-2-2-2-2-2-2-2-2-2-2-2-2-2-2-2-2-2-2-2-2-2-2-2-2-------|
Ab|-2-2-2-2-2-2-2-2-2-2-2-2-2-2-2-2-2-2-2-2-2-2-2-2-2-2-2-2-2-2-2-2-2-2-------|
Eb|-0-0-0-0-0-0-0-0-0-0-0-0-0-0-0-0-0-0-0-0-0-0-0-0-0-0-0-0-0-0-0-0-0-0-------|
 pm * * * * * * * * * * * * * * * * * * * * * * * * * * * * * * * * * *


GUITAR 2
       "THIS IS PERMANENCE. THIS IS YOUTH'S LAST LAST DANCE."
eb|---------------------------------------------+5+---------------------------|
Bb|---------------------------------------------+5+---------------------------|
Gb|---------------------------------------------+5+----------------------4----|
Db|-22---------------------2-2--2-2-------------+5+--------2-2-----2-2---4--5-|
Ab|-22---------------------2-2--2-2-------------+5+--------2-2-----2-2---2--5-|
Eb|-00---------------------0-0--0-0-------------+5+--------0-0-----0-0------3-|
                      pm   * *                                     * *


=========
PART C II
=========

"THIS IS THE END..."   eb|-----------------------------------------|
Bb|----------------------------------------------------------------|
Gb|--------------------------5-5-5-5------------5-5-------8-8-8-8--|
Db|--------------2-2-2-2-2---5-5-5-5--2-2-2-2---5-5---2---8-8-8-8--|
Ab|--------------2-2-2-2-2---3-3-3-3--2-2-2-2---3-3---2---6-6-6-6--|
Eb|--------------0-0-0-0-0------------0-0-0-0---------0------------|


  " AND TELL YOU NOTHING IS WRONG"
eb|---------------------------------------------------------------------------|
Bb|---------------------------------------------------------------------------|
Gb|--------------5-5-5-5-5--4-4-4-4-4--5-5-5-5-4-2----------------------------|
Db|--2-2-2-2-2---5-5-5-5-5--4-4-4-4-4--5-5-5-5-4-2----------------------------|
Ab|--2-2-2-2-2---3-3-3-3-3--2-2-2-2-2--3-3-3-3-2-0----------------------------|
Eb|--0-0-0-0-0----------------------------------------------------------------|

"DARKENED HALLS DOOMED PHONE CALLS TAKE THIS DOWN CAUSE WE'RE TELLING ALL."
 eb|-----------------------------------------------------------------------------|
Bb|------------------------------------------------------------------------------|
Gb|---------------5-5-5-5------------5-5-------8-8-8-8---------------------------|
Db|---2-2-2-2-2---5-5-5-5--2-2-2-2---5-5---2---8-8-8-8---------------------------|
Ab|---2-2-2-2-2---3-3-3-3--2-2-2-2---3-3---2---6-6-6-6---------------------------|
Eb|---0-0-0-0-0------------0-0-0-0---------0-------------------------------------|

 " WITH MELANCHOLY ANTHEMS, TO COMMEMORATE DISASTER...."
eb|-----------------------------------------------------------------------------------|
Bb|-----------------------------------------------------------------------------------|
Gb|--------------5-5-5-5-5--4-4-4-4-4--5-5-5-5-4-2------------------------------------|
Db|--2-2-2-2-2---5-5-5-5-5--4-4-4-4-4--5-5-5-5-4-2------------------------------------|
Ab|--2-2-2-2-2---3-3-3-3-3--2-2-2-2-2--3-3-3-3-2-0--[THIS-GOES-RIGHT-INTO-PART-D-II---|
Eb|--0-0-0-0-0------------------------------------------------------------------------|

=========
PART D II
=========

 "BOOKMARK THIS PAGE, CAUSE THIS IS WHERE THINGS FALL APART..."
eb|---------------------------------------------------------------------------|
Bb|---------------------------------------------------------------------------|
Gb|---5-5-5-5-5-5-5-5-5-5-5-5-5-5-5----9-9-9-9-9-9-9-9-9-9--------------------|
Db|---5-5-5-5-5-5-5-5-5-5-5-5-5-5-5----9-9-9-9-9-9-9-9-9-9--------------------|
Ab|---3-3-3-3-3-3-3-3-3-3-3-3-3-3-3----7-7-7-7-7-7-7-7-7-7--------------------|
Eb|------------------------------------0-0-0-0-0-0-0-0-0-0--------------------|


 "REMEMBER THESE DAYS CAUSE THIS IS HOW DOWNWARD SPIRALS START..."
eb|---------------------------------------------------------------------------|
Bb|---------------------------------------------------------------------------|
Gb|---5-5-5-5-5-5-5-5-5-5----9-9-9-9-9-9-9-9-9-9------------------------------|
Db|---5-5-5-5-5-5-5-5-5-5----9-9-9-9-9-9-9-9-9-9------------------------------|
Ab|---3-3-3-3-3-3-3-3-3-3----7-7-7-7-7-7-7-7-7-7------------------------------|
Eb|--------------------------0-0-0-0-0-0-0-0-0-0------------------------------|


   "THESE ARE THINGS I NEVER WANTED TO SAY..."
eb|---------------------------------------------------------------------------|
Bb|---------------------------------------------------------------------------|
Gb|----5------5--4--2---------------------------------------------------------|
Db|----5------5--4--2--2------------------------------------------------------|
Ab|----3------3--2--0--2------------------------------------------------------|
Eb|--------------------0---------[REPEAT-TWO-TIMES]---------------------------|

                           "SO LET IT ALL COME CRASHING DOWN ON ME."
eb|---------------------------------------------------------------------------------|
Bb|---------------------------------------------------------------------------------|
Gb|---------------------------------------5-5-5-5-5--8-8-8-8-8---9------------------|
Db|--------9/12--9~~~~~10p9---------------5-5-5-5-5--8-8-8-8-8---9------------------|
Ab|---5/7---------------------------------3-3-3-3-3--6-6-6-6-6---7------------------|
Eb|-------------------------0~~~----------------------------------------------------|
                                 pm         * * * *    * * * *


======
PART E   [ REPEAT AND FADE OUT ON THIS ]
======

GUITAR 1

     "THESE ARE THE THINGS THAT WE NEVER EVER WANTED TO KNOW.....
eb|---------------------------------------------------------------------------|
Bb|---------------------------------------------------------------------------|
Gb|----------------------5-5-5-5---8-8-8-8-9----------------------------------|
Db|---2-2-2-2-2-2-2-2----5-5-5-5---8-8-8-8-9----------------------------------|
Ab|---2-2-2-2-2-2-2-2----3-3-3-3---6-6-6-6-7----------------------------------|
Eb|---0-0-0-0-0-0-0-0---------------------------------------------------------|


      " WITH SMILING SCARS ACROSS OUR THROATS ..."
eb|---------------------------------------------------------------------------|
Bb|---------------------------------------------------------------------------|
Gb|----------------------5-5-5-5---8-8-8-8-9----------------------------------|
Db|---2-2-2-2-2-2-2-2----5-5-5-5---8-8-8-8-9----------------------------------|
Ab|---2-2-2-2-2-2-2-2----3-3-3-3---6-6-6-6-7----------------------------------|
Eb|---0-0-0-0-0-0-0-0---------------------------------------------------------|


GUITAR 2


eb|------------------------------------------------------------------------|
Bb|------------------------------------------------------------------------|
Gb|------8--11-11---9-12-12---11-14-14---16--16--17---12-12-12-12-8-8-8-8--|
Db|------x--x--x----x-x--x----x--x--x-----x---x---x---x--x--x--x--x-x-x-x--|
Ab|------6--9--9----7-10-10---9--12-12---14--14--15---10-10-10-10-6-6-6-6--|
Eb|------------------------------------------------------------------------|

============
KEY:
============
| /  slide up
| \  slide down
| h  hammer-on
| p  pull-off
| ~  vibrato
| +  harmonic
| x  Mute note
| *  palm muted note
===============================================================================
Tap to rate this tab
# A B C D E F G H I J K L M N O P Q R S T U V W X Y Z