Song name
# A B C D E F G H I J K L M N O P Q R S T U V W X Y Z

Static X - Push It tab

t. See http://www.olga.net/faq/ for more information.                     #
#-----------------------------------------------------------------------------#

Date: Fri, 21 Apr 2000 14:56:21 -0400
From: "-\[x\]static x\[x\]-" 
Subject: s\static_x\push_it.tab

Static-X
"Push It"
CD: Wisconsin Death Trip
Tabbed by Mark Little (wisconsin_death_trip69@hotmail.com)
Send any corrections or comments
*************************************************
Yes!! Finally I figured out how to play this. It is played on 2 guitars, but
I've tabbed it to play on one. Hope you enjoy it. Does anyone have some Dope
tabs? Also I corrected the tuning and the lyrics, so now maybe it all sounds
right.

Tab key:
p-pull off
h-hammer on
^-bend
P.M.-palm mute
Tune your guitar like this:B Gb B E Ab Db
I have a tuner program for your computer if u need something to tune your
guitar like this. If u need it, email me and tell me if you have winzip.
Riff A
Intro:
D--------------------
A-------6-6----------
F--------------------  x8
C--------------------
G--------------------
C------------0-0-----
Riff B:
Heavy distortion:
D------------------
A------------------
F------------------
C--1-1--4--1-1-1-5-   x3
G--1-1--4--1-1-1-5-
C--1-1--4--1-1-1-5-
Riff C:
D------------------------
A------------------------
F------------------------
C-4p1-1-4p1-1-5---------
G-4p1-1-4p1-1-5---------
C-4p1-1-4p1-1-5---------

Riff D:("I see it, I need it...)
D--------------^13-
A------------------
F------------------
C-4-1-1-4-1-1------  x3
G-4-1-1-4-1-1------
C-4-1-1-4-1-1------
__P.M._______
Riff E:
D----------------
A----------------
F----------------
C-4-1-1-4-1-1-5--
G-4-1-1-4-1-1-5--
C-4-1-1-4-1-1-5--
  ____P.M._____
Riff F:
here's the part where Wayne is singing "my mind is corrosive I trip on
corrosive I freak see thru me"
D----------
A----------
F----------
C-4----1---
G-4----1---
C-4----1---

Order of riffs:
Riff A x8
Riff B x3
Riff C x1
Riff B x3
Riff A x1
Riff B x7
Riff C x1
Riff B x7
Riff C x1
Riff B x8
Riff B x7
Riff C x1
Riff A x8
Riff D x3
Riff A x8
Riff F x1
Riff B x4
Riff F x1
Riff B x15
Riff C x1

Corrections, comments, need guitar tuner, email
wisconsin_death_trip69@hotmail.com
Tap to rate this tab
# A B C D E F G H I J K L M N O P Q R S T U V W X Y Z