Guitaretab - guitar tabs
Song name
# A B C D E F G H I J K L M N O P Q R S T U V W X Y Z

Static X - Black And White tab

-------------------------------------------------------------------------------
		Black And White  Static-X
-------------------------------------------------------------------------------

By: Pas (dildosuptheass@hotmail.com)

/ = Slide down

Tuning: Drop D down 1 step (C G C F A D)

Intro:
|                                      4x|
|----------------------------------------|---------|
|----------------------------------------|---------|
|--3-3-3--3-3-3-3-3----3-3-3--3-3-3-3----|--3-3-3--|
|--2-2-2--2-2-2-2-2--0-2-2-2--2-2-2-2-0--|--2-2-2--|
|--1-1-1--1-1-1-1-1--0-1-1-1--1-1-1-1-0--|--1-1-1--|
|--------------------0----------------0--|---------|

Verse:  3x|
|---------|
|---------|
|--3-3-3--|
|--2-2-2--|
|--1-1-1--|
|---------|

Chorus:         2x|
|-----------------|-----------|
|-----------------|-----------|
|-----------------|-----------|
|--1---3---4---3--|-----------|
|--1---3---4---3--|--0--------|
|--1---3---4---3--|--0-12///--|

Pre-Verse:
|                                      2x|
|----------------------------------------|---------|
|----------------------------------------|---------|
|--3-3-3--3-3-3-3-3----3-3-3--3-3-3-3----|--3-3-3--|
|--2-2-2--2-2-2-2-2--0-2-2-2--2-2-2-2-0--|--2-2-2--|
|--1-1-1--1-1-1-1-1--0-1-1-1--1-1-1-1-0--|--1-1-1--|
|--------------------0----------------0--|---------|

Verse:  3x|
|---------|
|---------|
|--3-3-3--|
|--2-2-2--|
|--1-1-1--|
|---------|

Chorus:         2x|
|-----------------|-----------|
|-----------------|-----------|
|-----------------|-----------|
|--1---3---4---3--|-----------|
|--1---3---4---3--|--0--------|
|--1---3---4---3--|--0-12///--|

Bridge:                                4x|
|----------------------------------------|
|----------------------------------------|
|--3-3-3--3-3-3-3-3----3-3-3--3-3-3-3----|
|--2-2-2--2-2-2-2-2--0-2-2-2--2-2-2-2-0--|
|--1-1-1--1-1-1-1-1--0-1-1-1--1-1-1-1-0--|
|--------------------0----------------0--|
[ Tab from: http://www.guitaretab.com/s/static-x/26567.html ]
Chorus:
|               2x|
|-----------------|-----------------|-----------------|-----------|(Guitar 1)
|-----------------|-----------------|-----------------|-----------|
|-----------------|-----------------|-----------------|-----------|
|--1---3---4---3--|--1---3---4---3--|--1---3---4---3--|-----------|
|--1---3---4---3--|--1---3---4---3--|--1---3---4---3--|--0--------|
|--1---3---4---3--|--1---3---4---3--|--1---3---4---3--|--0-12///--|
|               2x|                 |                 |           |
|-----------------|-----------------|-----------------|-----------|(Guitar2)
|-----------------|-----------------|-----------------|-----------|
|-----------------|--8---10--11--13-|--8---10--11--10-|-----------|
|-----------------|--x---x---x---x--|--x---x---x---x--|-----------|(Play these notes
|-----------------|--6---8---9---11-|--6---8---9---8--|-----------| a lot of times)
|-----------------|-----------------|-----------------|-----------|

Breakdown: 4x|
|------------|
|------------|
|-----3-3-3--|
|-----2-2-2--|
|-----1-1-1--|
|------------|

Chorus:
|               2x|
|-----------------|-----------------|-----------------|-----------|(Guitar 1)
|-----------------|-----------------|-----------------|-----------|
|-----------------|-----------------|-----------------|-----------|
|--1---3---4---3--|--1---3---4---3--|--1---3---4---3--|-----------|
|--1---3---4---3--|--1---3---4---3--|--1---3---4---3--|--0--------|
|--1---3---4---3--|--1---3---4---3--|--1---3---4---3--|--0-12///--|
|               2x|                 |                 |           |
|-----------------|-----------------|-----------------|-----------|(Guitar2)
|-----------------|-----------------|-----------------|-----------|
|-----------------|--8---10--11--13-|--8---10--11--10-|-----------|
|-----------------|--x---x---x---x--|--x---x---x---x--|-----------|(Play these notes
|-----------------|--6---8---9---11-|--6---8---9---8--|-----------| a lot of times)
|-----------------|-----------------|-----------------|-----------|

Bridge:                                4x|
|----------------------------------------|
|----------------------------------------|
|--3-3-3--3-3-3-3-3----3-3-3--3-3-3-3----|
|--2-2-2--2-2-2-2-2--0-2-2-2--2-2-2-2-0--|
|--1-1-1--1-1-1-1-1--0-1-1-1--1-1-1-1-0--|
|--------------------0----------------0--|

Outro:
|                                      3x|
|----------------------------------------|--------------------------------------|
|----------------------------------------|--------------------------------------|
|--3-3-3--3-3-3-3-3----3-3-3--3-3-3-3----|--3-3-3--3-3-3-3-3----3-3-3--3-3-3-3--|
|--2-2-2--2-2-2-2-2--0-2-2-2--2-2-2-2-0--|--2-2-2--2-2-2-2-2--0-2-2-2--2-2-2-2--|
|--1-1-1--1-1-1-1-1--0-1-1-1--1-1-1-1-0--|--1-1-1--1-1-1-1-1--0-1-1-1--1-1-1-1--|
|--------------------0----------------0--|--------------------0-----------------|

===============================================================================
Related for Black And White tab